» » »

Miles Away Tabs (ver.3)

Artists:  A B C D E F G H I J K L M N O P Q R S T U V W X Y Z # 

Miles Away Tabs (ver.3)

Goldfinger
Rating:
0/5 (0 votes)

Tabs too difficult? Try these video lessons and learn fast.
                This a pretty reem song so black up 
and blaze some lambsbread and play it!

---------------4--4--4--4--4--4--4--4-----------------------------------------
---------------4--4--4--4--4--4--4--4---2--2--2--2--2--2--2--2----------------
---------------2--2--2--2--2--2--2--2---2--2--2--2--2--2--2--2----------------
----------------------------------------0--0--0--0--0--0--0--0----------------
 How Deep is your love, How deep is the ocean, How deap is the....            

-----------------------4--4--4--4--4--4--4--4---------------------------------
-4--4--4--4--4--4--4---4--4--4--4--4--4--4--4---------------------------------
-4--4--4--4--4--4--4---2--2--2--2--2--2--2--2---------------------------------
-2--2--2--2--2--2--2----------------------------------------------------------
 sea, and how deep is my love.(Play above twice, words are same both times)   

-4--4--4--4--4--4--4---6--6--6--6--6--6---9--9--9--9--9---4--4--4--4--4--4----
-4--4--4--4--4--4--4---6--6--6--6--6--6---9--9--9--9--9---4--4--4--4--4--4----
-2--2--2--2--2--2--2---4--4--4--4--4--4---7--7--7--7--7---2--2--2--2--2--2----
 Its miles away, miles away, yeah miles away, its miles away                  

-6--6--4--2-2-2---6--6-4-2-4---2-------------------------4--2-----------------
-----------------------------4-----4-4-4-4-2-2---2-2-2-2----------------------
 The Solo. The rest of the song uses the same power chords as above.
            
Tabs too difficult? Try these video lessons and learn fast.




comments powered by Disqus
↑ Back to top | Tablatures and chords are parodies/interpretations of the original songs. You may use it for private study, scholarship, research or language learning purposes only