» » »

Bro Tabs (ver.2)

Artists:  A B C D E F G H I J K L M N O P Q R S T U V W X Y Z # 

Bro Tabs (ver.2)

Goldfinger
Rating:
0/5 (0 votes)

Hard to play? Try these video lessons and learn fast.
                "Bro"

Written by John Feldmann
Performed by Goldfinger
As heard on Goldfinger's 3rd LP "Stomping Ground"

please send corrections if you spot any, THANKS!

I added the lyrics to help guide you.  The match up with the sections, but not word by word with note by note, understand??

------


Standard E tuning

Intro - palm muted/Bass

e|----------------------------------------------------|
B|----------------------------------------------------|
G|----------------------------------------------------|
D|----------------------------------------------------|
A|--4-4---2-2-----------------------------------------|
E|------4-----4-4-4-2-4-2-0---------------------------|

YOUR NOT MY BRO, don't say it, don't you pretend that you're my bro...
(aka chorus)

e|----------------------------------------------------|
B|----------------------------------------------------|
G|--6-6-----4-4---------------------------------------|
D|--6-6--6--4-4--6-6-6-4-6-4-2------------------------|
A|--4-4--6--2-2--6-6-6-4-6-4-2------------------------|
E|-------4-------4-4-4-2-4-2-0------------------------|

1st Verse

"you think you're my friend"
e|----------------------------------------------------|
B|----------------------------------------------------|
G|--3-------------------4-3-2-------------------------|
D|--3--2-2--2-2--4-3-2--4-3-2-------------------------|
A|--1--2-2--2-2--4-3-2--2-1-0-------------------------|
E|-----0-0--0-0--2-1-0--------------------------------|

"yet you just take from me"
e|----------------------------------------------------|
B|----------------------------------------------------|
G|--3------------4------------------------------------|
D|--3--2-2--2-2--4------------------------------------|
A|--1--2-2--2-2--2------------------------------------|
E|-----0-0--0-0---------------------------------------|

"now is the end"
e|----------------------------------------------------|
B|----------------------------------------------------|
G|--3-------------------4-3-2-------------------------|
D|--3--2-2--2-2--4-3-2--4-3-2-------------------------|
A|--1--2-2--2-2--4-3-2--2-1-0-------------------------|
E|-----0-0--0-0--2-1-0--------------------------------|

"don't ***ing smile, just get the *** away from me"
e|----------------------------------------------------|
B|----------------------------------------------------|
G|--3---------------3-4-5-----------------------------|
D|--3--2-2--2-2-----3-4-5-----------------------------|
A|--1--2-2--2-2-----1-2-3-----------------------------|
E|-----0-0--0-0---------------------------------------|

CHORUS

e|----------------------------------------------------|
B|----------------------------------------------------|
G|--6-6-----4-4---------------------------------------|
D|--6-6--6--4-4--6-6-6-4-6-4-2------------------------|
A|--4-4--6--2-2--6-6-6-4-6-4-2------------------------|
E|-------4-------4-4-4-2-4-2-0------------------------|

2nd Verse

"you use your fake friends"
e|----------------------------------------------------|
B|----------------------------------------------------|
G|--3-------------------4-3-2-------------------------|
D|--3--2-2--2-2--4-3-2--4-3-2-------------------------|
A|--1--2-2--2-2--4-3-2--2-1-0-------------------------|
E|-----0-0--0-0--2-1-0--------------------------------|

"you use them and throw them away"
e|----------------------------------------------------|
B|----------------------------------------------------|
G|--3-------4-3-2-------------------------------------|
D|--3--2-2--4-3-2-2-----------------------------------|
A|--1--2-2--2-1-0-2-----------------------------------|
E|-----0-0--------0-----------------------------------|

"so now is the end"
e|----------------------------------------------------|
B|----------------------------------------------------|
G|--3-------------------4-3-2-------------------------|
D|--3--2-2--2-2--4-3-2--4-3-2-------------------------|
A|--1--2-2--2-2--4-3-2--2-1-0-------------------------|
E|-----0-0--0-0--2-1-0--------------------------------|

"don't ***ing smile, just get the *** away from me, get the *** away"
e|----------------------------------------------------|
B|----------------------------------------------------|
G|--3---------------3-4-5----3-4-5--------------------|
D|--3--2-2--2-2-----3-4-5----3-4-5--------------------|
A|--1--2-2--2-2-----1-2-3----1-2-3--------------------|
E|-----0-0--0-0---------------------------------------|

CHORUS x 2

e|----------------------------------------------------|
B|----------------------------------------------------|
G|--6-6-----4-4---------------------------------------|
D|--6-6--6--4-4--6-6-6-4-6-4-2------------------------|
A|--4-4--6--2-2--6-6-6-4-6-4-2------------------------|
E|-------4-------4-4-4-2-4-2-0------------------------|

bridge
E-------10--8h10p8h10p8/6---11--9--7-
B--/10-------------------------------
G--/10-------------------------------
D------------------------------------
A------------------------------------
E------------------------------------


E---5--5-----5--7----------
B---6--5-----6--5----------
G---7--7-----7--7----------
D---7--7-----7--7----7-6---
A---5--5-----5--5----7-6---
E---5--5-----5--5----5-4---
  (ska strokes)     (distorted)

E--5--5----5--5--6--5
B--6--5----6--5--7--6
G--7--7----7--7--8--7
D--7--7----7--7--8--7
A--5--5----5--5--6--5
E--5--5----5--5--6--5
(ska strokes)


E-11/12--9---5--5
B------------5--6
G------------7--7
D------------7--7
A------------5--5
E------------5--5
            (alternates)
            
Hard to play? Try these video lessons and learn fast. | Correct




comments powered by Disqus
↑ Back to top | Tablatures and chords are parodies/interpretations of the original songs. You may use it for private study, scholarship, research or language learning purposes only