» » »

Goldfinger, Anything Tabs (ver.1)

Artists:  A B C D E F G H I J K L M N O P Q R S T U V W X Y Z # 

Anything Tabs (ver.1)

Goldfinger Tabs
 Rating:
4/5 (4 votes)
Anything lessons Tabs too difficult? Try these video lessons and learn fast
                Goldfinger - Anything.

INTRO 2x

E-------------------------------------
B-------------------------------------
G-------------------------------------
D------------7-------------------11---
A--7---7---9---9---11-12-11---12----12
E----5--------------------------------

VERSE A Bm C#m D (If you prefer, just play power chords)

E--7--7--4--5
B--7--7--5--7
G--6--7--6--7
D--7--9--6--7
A--7--9--4--5
E--5--7------

CHORUS (2x)  A E C#m D A E C#m D

E--5--0--4--5--5--0--4--5
B--5--0--5--7--5--0--5--7-
G--6--1--6--7--6--1--6--7
D--7--2--6--7--7--2--6--7
A--7--2--4--5--7--2--4--5
E--5--0--------5--0------

SOLO 1

E--------------------7------------------------------------5-5-5----
B--7-5---7-5---7-5-----7-5--7-7-7-5---7-7-7-5---7-7-7-5---5-5-5-5--
G------6-----6-----6----------------6---------6---------6---------6
D------------------------------------------------------------------
A------------------------------------------------------------------
E------------------------------------------------------------------

VERSE

CHORUS

SOLO 2

E--------------------------5-4------4-5-4-7--------
B--------------5---------------5--7---------5-5h7p5
G--7-6---7-6-----7-6---4-6-------------------------
D------7-----7-------7-----------------------------
A--------------------------------------------------
E--------------------------------------------------

E-------------------------5-5-5-5--7-7-7-7--9-9-9-9--10-10-10-10
B------------5---------5--5-5-5-5--7-7-7-7--9-9-9-9--10-10-10-10
G----------------4-6-7------------------------------------------
D--------------7------------------------------------------------
A--7-0----------------------------------------------------------
E-------7-2-----------------------------------------------------

CHORUS

OUTRO

E-------------
B------5------
G--7-----7p6--
D------------7
A-------------
E-------------

BETWEEN "ANYTHING" and "MABLE"

E--0-0--0-2---2---------2-0-2
B-----------3----0-0--0------
G----------------------------
D----------------------------
A----------------------------
E----------------------------

E--2--------3--2---0
B----3-0--3------3--
G-------------------
D-------------------
A-------------------
E-------------------
            
Submit corrections

comments powered by Disqus
↑ Back to top | Goldfinger Tabs for Anything. Lyrics for acoustic guitar and electric guitar. Tablatures and chords are parodies/interpretations of the original songs. You may use it for private study, scholarship, research or language learning purposes only