>
 >
Answers 1

Answers 1 Guitar Tabs

Goldfinger - Answers 1 chords, tabs, tablatures, lyrics

Guitar lessons | Add/correct | Request | Top 50 tabs Artists:  A B C D E F G H I J K L M N O P Q R S T U V W X Y Z 0-9

Answers 1 Guitar Tabs – Goldfinger

CD, Sheet music, Poster

Do you like Answers 1? Share with your friends now
Bass TabsBass Tabs v2TabsTabs v2
Intro: Guitar 1
e|------------------------------|
B|------------------------------|
G|----------3-2-----------------|
D|--0--3-0-------0------0--3-5--|
A|------------------1-0---------|
E|------------------------------|

Guitar 2
e|--5-5-5-5-5-5-5-5-5-5-5-5-5-5--|
B|--6-6-6-6-6-6-6-6-6-6-6-6-6-6--|
G|--7-7-7-7-7-7-7-7-7-7-7-7-7-7--|
D|-------------------------------|
A|-------------------------------|
E|-------------------------------|

Chorus: Guitar 1
e|--------------------------------------------|---|
B|--------------------------------------------|---|
G|---------------------------------------3-2--|-0-|
D|--00-2-3---5--3-2-0-2--00-2-3---5--3-2------|---|
A|---------0--------------------0-------------|---|
E|--------------------------------------------|---|

Guitar 2
e|--5-5--5-5--5-5--3-3--|-3--3-----|
B|--6-6--5-5--6-6--3-3--|-3----3---|
G|--7-7--5-5--7-7--3-3--|-3------3-|
D|----------------------|----------|
A|----------------------|----------|
E|----------------------|----------|

Verse: Guitar 2
e|--5-5--5-5--5-5--3-3--|
B|--6-6--5-5--6-6--3-3--|
G|--7-7--5-5--7-7--3-3--|
D|----------------------|
A|----------------------|
E|----------------------|

Pre-Chorus: Guitar 1 
e|---------5------------------5---|
B|----------6---8--------------6--|
G|---------------7----------------|
D|--------------------------------|
A|--------------------------------|
E|--------------------------------|

Guitar 2
e|--3----5----5----5----3----5----|
B|--5----6----5----5----5----6----|
G|--5----7----6----6----5----7----|
D|--5----7----5----7----5----7----|
A|--3----5----5----7----3----5----|
E|------------3----5--------------|

Bridge: Both guitars: then play it faster
e|--5--5--5--5--3--3--5--5--|
B|--6--6--6--6--3--3--5--5--|
G|--7--7--7--7--3--3--5--5--|
D|--------------------------|
A|--------------------------|
E|--------------------------|

Pre-Chorus: Both guitars
e|----------------------------------------------------------------------------------|
B|----------------------------------------------------------------------------------|
G|-//-55555555-77777777-------------------55555555-77777777-------------------------|
D|-//-55555555-77777777-55555555-77777777-55555555-77777777-55555555-77777777-10-9--|
A|-//-33333333-55555555-55555555-77777777-33333333-55555555-55555555-77777777--8-7--|
E|-//-------------------33333333-55555555-------------------33333333-55555555-------|
                                                           PM PM    PM PM
Chorus 2: Guitar 1
e|-----------------------------------------------|---|
B|-----------------------------------------------|---|
G|-----------------------------------------------|-9-|
D|----------9-7-------------------9-7------10-9--|-9-|
A|--77-9-10-----10-9-7-9--77-9-10-----10-9-------|-7-|
E|-----------------------------------------------|---|

Guitar 2
e|--7-7--7-7--7-7--5-5--|---|
B|--8-8--7-7--8-8--5-5--|---|
G|--9-9--7-7--9-9--5-5--|-9-|
D|----------------------|-9-|
A|----------------------|-7-|
E|----------------------|---|

END

Order:
Intro
Chorus x2
Verse x4
Pre-Chorus
Chorus x2
Verse x2
Pre-Chorus
Chorus x2
Bridge x2
Bridge faster x2
Pre-Chorus
Chorus 2 x4
 
Lyrics:

I seached for a cause
I climbed the highest mountain
I walked to the top
I stopped and then looked down

But when I stop the search
The answers always come
And when I help someone
I always help myself by helping

(Chorus)

You tell me where your skeleton's hiding
Tell me all and I'll tell you
You think you have a real good ***ing answer
A ***ing answer I'll give you

I look toward the girls
And there I found no truth
I looked outside myself
It seemed I lost the good

But when I turn my eyes
Out from my own head
That's when I realize
That I see what I'm really selling

Chorus





Comments


Popular Goldfinger tabs & chords
Free Me 1 Chords
San Simeon Chords
Spokesman Chords
Superman Chords
Decision 1 Tabs
My Everything Tabs
My Girlfriends Shower Tabs
Nothing To Prove 1 Tabs
Spokesman Tabs
The Kids Are Alright 1 Tabs


Song lyrics



↑ Back to top | Tablatures and chords are parodies/interpretations of the original songs. You may use it for private study, scholarship, research or language learning purposes only
© 2014 AZChords.com Contact us | Privacy policy | DMCA | Add/correct tabs | Request tabs | Top 50 tabs