» » »

20 Cent Good Bye 1 Tabs (ver.1)

Artists:  A B C D E F G H I J K L M N O P Q R S T U V W X Y Z # 

20 Cent Good Bye 1 Tabs (ver.1)

Goldfinger
Rating:
0/5 (0 votes)

Hard to play? Try these video lessons and learn fast.
                written by sebastian hoppen (mrmccheese)

Verse chords used:
   A   G#  F#m D   Dm  E   Eii
E--5---4---2---2---1---0---4---
B--5---4---2---3---3---0---5---
G--6---5---2---2---2---1---4---
D--7---6---4---0---0---2-------
A--7---6---4-----------2-------
E--5---4---2-------------------

Verse:
A                 G#      F#m          D
Went out today to try and phone you. I guess you didn't 
Dm                A    G#      F#m      E           D
recognize my call. The lady on your end says you've got 
       Eii 
caller I.D.  

Bridge chords used:
   D   A   C   F   C#
E--2---5---3---1---4---
B--3---5---5---1---6---
G--2---6---5---2---6---
D------7---5---3---6---
A----------------------
E----------------------

Bridge:
D               A    C                  F           C  C-C#-
And I'm feeling sorry, that you've been woken up so much.
D               A            C                  F
And I'm feeling guilty, just talk to me, please talk to me.     

Chorus chords used:
   B   D#m   G#m   Eii   Emii
E--7---6-----4-----4-----7---
B--7---7-----4-----5-----8---
G--8---8-----4-----4-----9---
D--9---8-----6-----------9---
A------------6---------------
E------------4---------------
            
Hard to play? Try these video lessons and learn fast. | Correct




comments powered by Disqus
↑ Back to top | Tablatures and chords are parodies/interpretations of the original songs. You may use it for private study, scholarship, research or language learning purposes only