» » »

Precious Lie Tabs (ver.3)

Artists:  A B C D E F G H I J K L M N O P Q R S T U V W X Y Z # 

Precious Lie Tabs (ver.3)

God Forbid
Rating:
0/5 (0 votes)

Hard to play? Try these video lessons and learn fast.
                Precious Lie - God Forbid

Tuning: DADGBE

Intro
E|-------------------------------------------------------------------------|
B|-------------------------------------------------------------------------|
G|--7--7--7--7/9-9/10-10-10---10\9--9-9---9--9--9--9/10-10/12-12-12-12\10--|
D|--x--x--x--x-x-x-x--x--x-----x-x--x-x---x--x--x--x-x---x--x--x--x--x-x---|
A|--5--5--5--5/7-7/8--8--8-----8\7--7-7---7--7--7--7/8---8/10-10-10-10\8---|
D|-------------------------------------------------------------------------|

E|-------------------------------------------------------------------------|
B|-------------------------------------------------------------------------|
G|--10-10---3-3-3-3--xx-x-x3-----------------------------------------------|
D|---x--x---x-x-x-x--xx-x-xx-5-5-5/7-7-7-7-7-7-----------------------------|
A|---8--8---1-1-1-1--xx-x-x1-x-x-x-x-x-x-x-x-x-----------------------------|
D|---------------------------3-3-3/5-5-5-5-5-5-----------------------------|


Verse
E|-------------------------------------------------------------|
B|-------------------------------------------------------------|
G|--7---------6--------5-4--------3----------------------------|
D|--7---------6--------5-4--------3----------------------------|
A|--5---------4--------3-2--------1----------------------------|
D|----0-0-0-0---0-0-5b-----0-0-3b---1b-------------------------|
      . . . .   . .        . .

E|-------------------------------------------------------------|
B|-------------------------------------------------------------|
G|--6---------------------------6-/-8-8-8----------------------|
D|--6---------------------------x-/-x-x-x----------------------|
A|--4---------------------------4-/-6-6-6----------------------|
D|----0-0-0-0-0-0-0-0-0-0-0-0-0--------------------------------|
      . . . . . . . . . . . . .

E|-------------------------------------------------------------|
B|-------------------------------------------------------------|
G|-------------------------------------------------------------|
D|--0-0-6h7-7-0-0-4h6-6-0-0-2-0-4-0-0-6-0-4-6--7-7-7--9-9-9----|
A|--0-0-------0-0-------0-0---0---0-0---0---6--7-7-7--9-9-9----|
D|--0-0-------0-0-------0-0---0---0-0---0---6--7-7-7--9-9-9----|
    . .       . .       . .   .   . .   .

Chorus
E|-------------------------------------------------------------|
B|-------------------------------------------------------------|
G|--6---8---9---8---9---11--9----------------------------------|
D|--x---x---x---x---x---x---x---7---4---6----------------------|
A|--4---6---7---6---7---9---7---7---4---6----------------------|
D|------------------------------7---4---6----------------------|



| /  slide up
| \  slide down
| h  hammer-on
| p  pull-off
| ~  vibrato
| +  harmonic
| x  Mute note
            
Hard to play? Try these video lessons and learn fast. | Correct




comments powered by Disqus
↑ Back to top | Tablatures and chords are parodies/interpretations of the original songs. You may use it for private study, scholarship, research or language learning purposes only