>
 >
Empire Of The Gun

Empire Of The Gun Guitar Tabs

God Forbid - Empire Of The Gun chords, tabs, tablatures, lyrics

Guitar lessons | Add/correct | Request | Top 50 tabs Artists:  A B C D E F G H I J K L M N O P Q R S T U V W X Y Z 0-9

Empire Of The Gun Guitar Tabs – God Forbid

CD, Sheet music, Poster

Do you like Empire Of The Gun? Share with your friends now
Tabs
Empire of the Gun by God Forbid

Tuning: Drop A (A E A D F# B)

I couldnít find a legit tab for this song anywhere, so I just tabbed it out 
myself!! Itís probably about 95% correct, so please rate!!

Key: p - pull-off
     / - slide up
     \ - slide down
     . - palm mute
     * - pinch harmonic
     ~ - vibrato
     b - bend

|---------------------------------------------------------------------------------------|
|---------------------------------------------------------------------------------------|
|---------------------------------------------------------------------------------------|
|-7-77777-77777-777/888888-88888-885-55555-55555-555/777777-77777-77--------------------|
|-5-55555-55555-555--55555-55555-553-33333-33333-333--33333-33333-33--------------------|
|---------------------------------------------------------------------------------------|

|---------------------------------------------------------------------------------------|
|---------------------------------------------------------------------------------------|
|------------------------------------------------------7777-7777------------------------|
|-7-77777-7777710-10108-88885-555555555-55555-55555-55-7777-7777------------------------|
|-5-55555-55555-5--5-55-55555-555555553-33333-33333-33-5555-5555-5\3--------------------|
|---------------------------------------------------------------------------------------|

|---------------------------------------------------------------------------------------|
|---------------------------------------------------------------------------------------|
|---------------------------------------------------------------------------------------|
|---------------------------------------------/8-7-----77--8888--1010--88----8877-------|
|-10p9-5p4-5\------------------------10p9-5p4-----56-66--66----66----66--6666----101099-|
|-----0---0---0000000000000000000000-----0---0------------------------------------------|
      .   .   ......................     .   .       ..  ..    ..    ..  ....

|---------------------------------------------------------------------------------------|
|---------------------------------------------------------------------------------------|
|---------------------------------------------------------------------------------------|
|---------------------------------------------/8-7---555555555555555\111111111111111----|
|-10p9-5p4-5\------------------------10p9-5p4-----56-666666666666666\333333333333333----|
|-----0---0---00000000-00-00-00-0000-----0---0------------------------------------------|
      .   .   ........ .. .. .. ....     .   .       

|---------------------------------------------------------------------------------------|
|---------------------------------------------------------------------------------------|
|---------------------------------------------------------------------------------------|
|---------------------------------------------/8-7-----77--8888--1010--88----8877-------|
|-10p9-5p4-5\------------------------10p9-5p4-----56-66--66----66----66--6666----101099-|
|-----0---0---0000000000000000000000-----0---0------------------------------------------|
      .   .   ......................     .   .       ..  ..    ..    ..  ....

|---------------------------------------------------------------------------------------|
|---------------------------------------------------------------------------------------|
|---------------------------------------------------------------------------------------|
|---------------------------------------------/8-7---555555555555555\111111111111111----|
|-10p9-5p4-5\------------------------10p9-5p4-----56-666666666666666\333333333333333----|
|-----0---0---00000000-00-00-00-0000-----0---0------------------------------------------|
      .   .   ........ .. .. .. ....     .   .       

This is the part that Iím not sure about. :/
|---------------------------------------------------------------------------------------|
|---------------------------------------------------------------------------------------|
|---------------------------------------------------------------------------------------|
|-7---------------------------------------/7\6------/8\7--/5\4--------------------------|
|-7-0000-------------3222554455-*6-0-0000-/7\6-0000-/8\7--/5\4--------------------------|
|-7-0000-000032227666--------------0-0000-/7\6-0000-/8\7--/5\4--------------------------|
    .... ......................    . ....      ....

|---------------------------------------------------------------------------------------|
|---------------------------------------------------------------------------------------|
|---------------------------------------------------------------------------------------|
|-7---------------------------------------/7\6------/8\7--/5\4--------------------------|
|-7-0000-------------3222554455-*6-0-0000-/7\6-0000-/8\7--/5\4--------------------------|
|-7-0000-000032227666--------------0-0000-/7\6-0000-/8\7--/5\4--------------------------|
    .... ......................    . ....      ....

|---------------------------------------------------------------------------------------|
|---------------------------------------------------------------------------------------|
|---------------------------------------------------------------------------------------|
|-7-------------------------------------------------------------------------------------|
|-7-00-00-0000-00-5-00-00-0000-00--7--7-7--7-7--7-7-7-7--7-7--8--8-8--8-8--8-8-8-8------|
|-7-00-00-0000-00-8-00-00-0000-00-10-1010-1010-10101010-1010-12-1212-1212-12121212101088|
    .. .. .... ..   .. .. .... ..     . .  . .  . . . .  . .     . .  . .  . . . . . ...

|---------------------------------------------------------------------------------------|
|---------------------------------------------------------------------------------------|
|---------------------------------------------------------------------------------------|
|-7------------------------------------------------8888-8888-888810101010-10101010------|
|-7-00-00-0000-00-5-00-00-0000-00--7--7-7-7-7-7--7-5555-5555-5555-7-7-7-7--7-7-7-7-5\3--|
|-7-00-00-0000-00-8-00-00-0000-00-10-1010101010-10--------------------------------------|
    .. .. .... ..   .. .. .... ..     . . . .

|---------------------------------------------------------------------------------------|
|---------------------------------------------------------------------------------------|
|---------------------------------------------------------------------------------------|
|-7-77777-77777-777/888888-88888-885-55555-55555-555/777777-77777-77--------------------|
|-5-55555-55555-555--55555-55555-553-33333-33333-333--33333-33333-33--------------------|
|---------------------------------------------------------------------------------------|

|--------17------------------15------------------17------------------15-----------------|
|-15-18------18-15-18-15-18------18-15-18-15-18------18-15-18-15-18---------------------|
|---------------------------------------------------------------------------------------|
|---------------------------------------------------------------------------------------|
|---------------------------------------------------------------------------------------|
|---------------------------------------------------------------------------------------|

|---------------------------------------------------------------------------------------|
|---------------------------------------------------------------------------------------|
|---------------------------------------------------------------------------------------|
|---------------------------------------------/8-7-----77--8888--1010--88----8877-------|
|-10p9-5p4-5\------------------------10p9-5p4-----56-66--66----66----66--6666----101099-|
|-----0---0---0000000000000000000000-----0---0------------------------------------------|
      .   .   ......................     .   .       ..  ..    ..    ..  ....

|---------------------------------------------------------------------------------------|
|---------------------------------------------------------------------------------------|
|---------------------------------------------------------------------------------------|
|---------------------------------------------/8-7---555555555555555\111111111111111----|
|-10p9-5p4-5\------------------------10p9-5p4-----56-666666666666666\333333333333333----|
|-----0---0---00000000-00-00-00-0000-----0---0------------------------------------------|
      .   .   ........ .. .. .. ....     .   .       

|---------------------------------------------------------------------------------------|
|---------------------------------------------------------------------------------------|
|---------------------------------------------------------------------------------------|
|-7---------------------------------------/7\6------/8\7--/5\4--------------------------|
|-7-0000-------------3222554455-*6-0-0000-/7\6-0000-/8\7--/5\4--------------------------|
|-7-0000-000032227666--------------0-0000-/7\6-0000-/8\7--/5\4--------------------------|
    .... ......................    . ....      ....

|---------------------------------------------------------------------------------------|
|---------------------------------------------------------------------------------------|
|---------------------------------------------------------------------------------------|
|-7---------------------------------------/7\6------/8\7--/5\4--------------------------|
|-7-0000-------------3222554455-*6-0-0000-/7\6-0000-/8\7--/5\4--------------------------|
|-7-0000-000032227666--------------0-0000-/7\6-0000-/8\7--/5\4--------------------------|
    .... ......................    . ....      ....

|---------------------------------------------------------------------------------------|
|---------------------------------------------------------------------------------------|
|---------------------------------------------------------------------------------------|
|-7-------------------------------------------------------------------------------------|
|-7-00-00-0000-00-5-00-00-0000-00--7--7-7--7-7--7-7-7-7--7-7--8--8-8--8-8--8-8-8-8------|
|-7-00-00-0000-00-8-00-00-0000-00-10-1010-1010-10101010-1010-12-1212-1212-12121212101088|
    .. .. .... ..   .. .. .... ..     . .  . .  . . . .  . .     . .  . .  . . . . . ...

|---------------------------------------------------------------------------------------|
|---------------------------------------------------------------------------------------|
|---------------------------------------------------------------------------------------|
|-7------------------------------------------------8888-8888-888810101010-10101010------|
|-7-00-00-0000-00-5-00-00-0000-00--7--7-7-7-7-7--7-5555-5555-5555-7-7-7-7--7-7-7-7-5\3--|
|-7-00-00-0000-00-8-00-00-0000-00-10-1010101010-10--------------------------------------|
    .. .. .... ..   .. .. .... ..     . . . .

|---------------------------------------------------------------------------------------|
|---------------------------------------------------------------------------------------|
|---------------------------------------------------------------------------------------|
|-7-77777-77777-777/888888-88888-885-55555-55555-555/777777-77777-77--------------------|
|-5-55555-55555-555--55555-55555-553-33333-33333-333--33333-33333-33--------------------|
|---------------------------------------------------------------------------------------|

|--------17------------------15------------------17------------------15-----------------|
|-15-18------18-15-18-15-18------18-15-18-15-18------18-15-18-15-18---------------------|
|---------------------------------------------------------------------------------------|
|---------------------------------------------------------------------------------------|
|---------------------------------------------------------------------------------------|
|---------------------------------------------------------------------------------------|

|---------------------------------------------------------------------------------------|
|---------------------------------------------------------------------------------------|
|------------------------------------------------------1010----1010---------------------|
|-8------------------778877--8877----778877--8877--8877----8877-------7---778810108877--|
|-8-5/7-5-5/8-7------------------6666------66----88----------------8~---88--------------|
|-8--------------5555------55-----------------------------------------------------------|
                 ....      ..    ....      ..    ..                     ..

|---------------------------------------------------------------------------------------|
|---------------------------------------------------------------------------------------|
|---------1414------1414------------1515------1515----------------------------------17/-|
|-----1212----1212------1212----1313----1313------1313----778877--8877-777777778888-----|
|---------------------------6666------------66--------0000------00-----777777778888-----|
|-5555------------55---------------------------------------------------777777778888-----|
  ....            ..        ....            ..        ....      ..     ............

SOLO!!! :D

|---------------------------------------------------------------------------------------|
|---------------------------------------------------------------------------------------|
|-------14----1514121412------12-------------1210912107/9~-------9-10b-10---------------|
|-121415--1214----------151415---101214151214--------------/1010------------------------|
|---------------------------------------------------------------------------------------|
|---------------------------------------------------------------------------------------|

|-8888101010101212121212/-------------------------------------------18-------182022-----|
|----------------------------------------------------------------22----182022-----------|
|------------------------------------------------12-12b-121012~-------------------------|
|--------------------------/12----12-12/15-14-14----------------------------------------|
|------------------------------12-------------------------------------------------------|
|---------------------------------------------------------------------------------------|

|---------------------------------------------------------------------------------------|
|---------------------------------------------------------------------------------------|
|---------------------------------------------------------------------------------------|
|---------------------------7-8-11---------------0-----------7-8-11----7--1--1---7-8-11-|
|-0-0-0-0-0-0-0-0-0-0-0-0-0-7-8-11-0-0-0-0-0-0-0-0-0-0-0-0-0-7-8-11----7--1--1---7-8-11-|
|-0-0-0-0-0-0-0-0-0-0-0-0-0-7-8-11-0-0-0-0-0-0-0-0-0-0-0-0-0-7-8-11----7--1--1---7-8-11-|
  . . . . . . . . . . . . .        . . . . . . .   . . . . .

|---------------------------------------------------------------------------------------|
|---------------------------------------------------------------------------------------|
|---------------------------------------------------------------------------------------|
|-------0---------------0-------7-------1-------8-------7---7-8-11\---------------------|
|-0-0-0-0-0-0-0-000-0-0-0-0-0-0-7-0-0-0-1-0-0-0-8-0-0-0-7-0-7-8-11\---------------------|
|-0-0-0-0-0-0-0-000-0-0-0-0-0-0-7-0-0-0-1-0-0-0-8-0-0-0-7-0-7-8-11\---------------------|
  . . .   . . . ... . .   . . .   . . .   . . .   . . .   .

|---------------------------------------------------------------------------------------|
|---------------------------------------------------------------------------------------|
|---------------------------------------------------------------------------------------|
|-0---------------0-------7-------1-------8-------7---7-8-11\---------------------------|
|-0-0-0-0-000-0-0-0-0-0-0-7-0-0-0-1-0-0-0-8-0-0-0-7-0-7-8-11\---------------------------|
|-0-0-0-0-000-0-0-0-0-0-0-7-0-0-0-1-0-0-0-8-0-0-0-7-0-7-8-11\---------------------------|
    . . . ... . .   . . .   . . .   . . .   . . .   .

|---------------------------------------------------------------------------------------|
|---------------------------------------------------------------------------------------|
|---------------------------------------------------------------------------------------|
|-0---------------0-------7-------1-------8-------7---7-8-11\---------------------------|
|-0-0-0-0-000-0-0-0-0-0-0-7-0-0-0-1-0-0-0-8-0-0-0-7-0-7-8-11\---------------------------|
|-0-0-0-0-000-0-0-0-0-0-0-7-0-0-0-1-0-0-0-8-0-0-0-7-0-7-8-11\---------------------------|
    . . . ... . .   . . .   . . .   . . .   . . .   .

|---------------------------------------------------------------------------------------|
|---------------------------------------------------------------------------------------|
|---------------------------------------------------------------------------------------|
|-0---------------0-------7--1--1---7-8-------------------------------------------------|
|-0-0-0-0-000-0-0-0-0-0-0-7--1--1---7-8-------------------------------------------------|
|-0-0-0-0-000-0-0-0-0-0-0-7--1--1---7-8-------------------------------------------------|
    . . . ... . .   . . .   

|--------17------------------15------------------17------------------15-----------------|
|-15-18------18-15-18-15-18------18-15-18-15-18------18-15-18-15-18---------------------|
|---------------------------------------------------------------------------------------|
|---------------------------------------------------------------------------------------|
|---------------------------------------------------------------------------------------|
|---------------------------------------------------------------------------------------|

|---------------------------------------------------------------------------------------|
|---------------------------------------------------------------------------------------|
|---------------------------------------------------------------------------------------|
|-7-77-7/1010\8885-555-10101010101010101212121212121212---------------------------------|
|-5-55-5----5--555-555-10101010101010101212121212121212---------------------------------|
|----------------------10101010101010101212121212121212---------------------------------|
                          . . . . . . .   . . . . . . .

|---------------------------------------------------------------------------------------|
|---------------------------------------------------------------------------------------|
|---------------------------------------------------------------------------------------|
|-0---0-----0---------------------------------------------------------------------------|
|-0-0-0-0-0-0-0-0-5-0-5-0-0-5-0-0--7--7--7--7--7--7--7--7--8--8--8--8--8--8--8--8-------|
|-0-0-0-0-0-0-0-0-8-0-8-0-0-8-0-0-10-10-10-10-10-10-10-10-12-12-12-12-12-12-12-12-------|
    .   . .   . .   .   . .   . .     .     .  .     .  .     .     .  .     .  .

|---------------------------------------------------------------------------------------|
|---------------------------------------------------------------------------------------|
|---------------------------------------------------------------------------------------|
|-0---0-----0---------------------------------------------------------------------------|
|-0-0-0-0-0-0-0-0-5-0-5-0-0-5-0-0--7--7--7--7--7--7--7--7--8--8--8--8--8--8--8--8-------|
|-0-0-0-0-0-0-0-0-8-0-8-0-0-8-0-0-10-10-10-10-10-10-10-10-12-12-12-12-12-12-12-12-------|
    .   . .   . .   .   . .   . .     .     .  .     .  .     .     .  .     .  .

|---------------------------------------------------------------------------------------|
|---------------------------------------------------------------------------------------|
|---7/9----9/10----10/1515\1414-14\1212\10---7/9-----------------------9-9-9-9-9-9-9-9--|
|---------------------------------------------------------------------1010101010101010--|
|-5-5/7--7-7/-8--8--8/1313\1212-12\1010\-8-5-5/7--7---7-7-7-7-7-7-7-7--7-7-7-7-7-7-7-7--|
|-8-----10------12-------------------------8-----10--1010101010101010-------------------|
                                                        . . . . . . .

|---------------------------------------------------------------------------------------|
|---------------------------------------------------------------------------------------|
|---------------------------------------------------------------------------------------|
|---------------------------------------------/8-7-----77--8888--1010--88----8877-------|
|-10p9-5p4-5\------------------------10p9-5p4-----56-66--66----66----66--6666----101099-|
|-----0---0---0000000000000000000000-----0---0------------------------------------------|
      .   .   ......................     .   .       ..  ..    ..    ..  ....

|---------------------------------------------------------------------------------------|
|---------------------------------------------------------------------------------------|
|---------------------------------------------------------------------------------------|
|---------------------------------------------/8-7---555555555555555\111111111111111----|
|-10p9-5p4-5\------------------------10p9-5p4-----56-666666666666666\333333333333333----|
|-----0---0---00000000-00-00-00-0000-----0---0------------------------------------------|
      .   .   ........ .. .. .. ....     .   .       

|---------------------------------------------------------------------------------------|
|---------------------------------------------------------------------------------------|
|-10101010-10101010--9-9-10101010-10101010----------------------------------------------|
|-12121212-12121212-1010-12121212-12121212----------------------------------------------|
|---------------------------------------------------------------------------------------|
|---------------------------------------------------------------------------------------|

Enjoy! :D





Comments


Popular God Forbid tabs & chords
Go Your Own Way Bass Tabs
A Few Good Men Tabs
Antihero 4 Tabs
Crucify Your Beliefs Intro 2 Tabs
Crucify Your Beliefs Intro 3 Tabs
End Of The World Tabs
End Of The World Intro Tabs
Gone Forever Tabs
Precious Lie Tabs
Precious Lie Intro 1 Tabs


Song lyrics



↑ Back to top | Tablatures and chords are parodies/interpretations of the original songs. You may use it for private study, scholarship, research or language learning purposes only
© 2014 AZChords.com Contact us | Privacy policy | DMCA | Add/correct tabs | Request tabs | Top 50 tabs