>
 >
Antihero 1

Antihero 1 Guitar Tabs

God Forbid - Antihero 1 chords, tabs, tablatures, lyrics

Guitar lessons | Add/correct | Request | Top 50 tabs Artists:  A B C D E F G H I J K L M N O P Q R S T U V W X Y Z 0-9

Antihero 1 Guitar Tabs – God Forbid

CD, Sheet music, Poster

Do you like Antihero 1? Share with your friends now
Bass TabsTabsTabs v2Tabs v3Tabs v4
This is continued from the first one I did for you guys. Remember its in DADGBe tuning.

 (A)           2x                     2x then (A)...then you go here
|-----------------------------|--------------------|-------------|---------|
|-----------------------------|--------------------|-------------|---------|
|-----------------------------|---3-2--------3-2---|-------------|---------|
|-----8-7-----------8--5--7---|-------3----------3-|-------------|---------|
|---------8-------------------|-1----------1-------|1-1-1-1-3-0--|10-10-10-|
|--5-----------5-5~-----------|-1--------0-1-------|1-1-1-1-3-0--|---------|


|--------------------------------------------------------------------------|
|--------------------------------------------------------------------------|
|------------------------------12-14b-14br--12-14-14b-14br-12------12t3p0--|
|----------12-12-12-14-14-14-----------------------------------13~---------|
|13-13-13------------------------------------------------------------------|
|--------------------------------------------------------------------------|


|--------------------------------------------------------------------------|
|-------------------------------------------------------------18-----------|
|-12t3p0--12t3p0--12t3p0--14t7p0--14t7p0--14t7p0--14t7p0--17b-----17~--15--|
|--------------------------------------------------------------------------|
|--------------------------------------------------------------------------|
|--------------------------------------------------------------------------|

                            2x         p.m.........;     2x
|----------------------|-----------------------------|---------------------|
|-15h17p15-------------|-----------------------------|---------------------|
|----------17--15--17~-|-----------------------------|---------------------|
|----------------------|-----------------------------|------8-7------------|
|----------------------|------1-1-1-1-1--------------|----------8----------|
|----------------------|-15\--1-1-1-1-1-1-1-1-1-1-1--|-3/5---------3-3/5~--|

                              p.m...;                         2x
|-------|-------------------------------------------------|----------------|
|-------|-------------------------------------------------|----------------|
|-------|-----------3-2---0-2-------------------3-2---0-2-|----------------|
|-8-5-7-|---------------3---------------------------3-----|-------8-7------|
|-------|-1-1-1-1-1-------------------1-1-1-1-1-----------|------------8---|
|-------|-1-1-1-1-1------------1-1-1--1-1-1-1-1-----------|-1-3/5----------|

                  3x
|-------------|------------------------------------------------------------|
|-------------|------------------------------------------------------------|
|-------------|------------------------------------------------------------|
|-----8-5-7---|------------4-4-4------------5-5-5------------4-4-4---------|
|-------------|-1----------------------------------------------------------|
|-3/5---------|-1-0-0-0-0---------1-0-0-0-0--------1-0-0-0-0-------1-0-0-0-|


|-------------|------------------------------------------------------------|
|-------------|------------------------------------------------------------|
|-------------|-----------------------------------10p9-7-9-10/12-12~-------|
|-------------|-----------7-8------7~--------------------------------------|
|-0--5-5------|-1-------------7-8------------------------------------------|
|-0------3-3~-|-1-0-0-0-0---------------1-0-0-0-0--------------------------|


Sorry once again I must leave but I hope you enjoy!!





Comments


Popular God Forbid tabs & chords
Better Days Bass Tabs
Century Fades Tabs
Chains Of Humanity Tabs
Crucify Your Beliefs Intro 1 Tabs
Empire Of The Gun Tabs
Empire Of The Gun Intro Tabs
End Of The World Intro 1 Tabs
Lonely Dead Intro 1 Tabs
No Sympathy Tabs
Washed Out World Tabs


Song lyrics



↑ Back to top | Tablatures and chords are parodies/interpretations of the original songs. You may use it for private study, scholarship, research or language learning purposes only
© 2014 AZChords.com Contact us | Privacy policy | DMCA | Add/correct tabs | Request tabs | Top 50 tabs