» » »

God Forbid, Antihero Bass tabs (ver.1)

Artists:  A B C D E F G H I J K L M N O P Q R S T U V W X Y Z # 

Antihero Bass tabs (ver.1)

God Forbid Tabs
 Rating:
4.2/5 (5 votes)
Antihero lessons Tabs too difficult? Try these video lessons and learn fast
1
                Band- God Forbid
Song- Antihero

Tuning: D G C F

Riff 1 (0:00)
F |------------------------|
C |------------------------|
G |---------------3p2-2p0--|
D |--12\5~------1----------|

Riff 2 (0:06)
F |-------------------------------------------|
C |-------------------------------------------|
G |------3-3p2-----3-3p2-----3-3p2---3p2-2p0--|
D |--3h5-------3h5-------3h5-------1----------|

Riff 3 (0:20)
F |-----------------------------|
C |-----------------------------|
G |-----------3-3p2-5-5-7-8-77--|
D |--5555-0-3-------------------|

F |----------------------10-10p9--|
C |-------------------------------|
G |--------3-3p2-5-5-7-8----------|
D |--5-0-3------------------------|

Fill 1
F |------------|
C |------------|
G |------------|
D |--5555-3-5--|

Riff 4 (0:35)
F |-----------------------------|
C |-----------------------------|
G |-----------------------------|
D |--1-11-11-111-1-11-11-111/5--|

F |---------------------------------------|
C |---------------------------------------|
G |--3p2-00-0-5-2h3-000-3-3p2-00-0-5-2h3--|
D |---------------------------------------|

Fill 2 (1:00)
F |-------------|
C |-------------|
G |-------------|
D |--1111-3-0~--|

Riff 5 (1:04)
F |-------------------------------|
C |-------------------------------|
G |-------------------------------|
D |--5~-55-5~-5555-1~-11-1~-1111--|

F |-------------------------------------|
C |-------------------------------------|
G |-------------------------------------|
D |--5555555555555555-1111111111111111--|

Riff 4 (1:16)
Riff 2 (1:41)

Riff 2 Variation (1:47)
F |------------------------------------|
C |------------------------------------|
G |------3-3p2-----3-3p2-----3-3p2-----|
D |--3h5-------3h5-------3h5-------1~--|

Fill 3 (1:55)
F |-------------------|
C |-------------------|
G |-------------------|
D |--00-0-0~--11-1-1--|

Riff 6 (2:02)
F |--------------------------------------------------------|
C |--------------------------------------------------------|
G |-----------------------------------------------222------|
D |--00-00-000000-00-00-000000-00-00-000000-11-11-----3-1--|

Riff 7 (2:22)
F |------------------------------------------|
C |------------------------------------------|
G |------------------------------------------|
D |--000000000-0~-3-1~-000000000-0~-5-8-7-5--|

F |------------------------------------------|
C |------------------------------------------|
G |------------------------------------------|
D |--000000000-0~-3-1~-000000000-0-5-8~-7-5--|

Riff 8 (2:35)
F |---------------------------------------------|
C |-------3p2-2p0-5p3-5p3------3p2-2p0-5p3-5p3--|
G |---------------------------------------------|
D |--1-11-----------------1-11------------------|

F |----------------------------------------|
C |-------5p3-3p2-7p5-7p5------------------|
G |----------------------------------------|
D |--5-55-----------------5-5-5-5-5-5-5-5--|

Riff 3 (2:48)
Riff 2 (3:01)

Riff 2 Variation 2 (3:07)
F |------------------------------------------|
C |------------------------------------------|
G |------3-3p2-----3-3p2-----3-3p2-----------|
D |--3h5-------3h5-------3h5-------1~-xxx-3~-|

Fill 4 (3:18)
F |-----------|
C |-----------|
G |-----------|
D |--00-0-0~--|

Riff 9 (3:24)
F |--------------------------------------------------------|
C |--------------------------------------------------------|
G |--------------------------------------------------------|
D |--00-00-000000-00-00-000000-00-00-000000-11-11-1111111--|

Riff 6 (3:30)

Fill 5 (3:50)
F |---------|
C |---------|
G |---------|
D |--00-00--|
            
Submit corrections

comments powered by Disqus
↑ Back to top | God Forbid Bass for Antihero. Lyrics for acoustic guitar and electric guitar. 1 Tablatures and chords are parodies/interpretations of the original songs. You may use it for private study, scholarship, research or language learning purposes only