» » »

G Love And Special Sauce, Superhero Brother Tabs (ver.2)

Artists:  A B C D E F G H I J K L M N O P Q R S T U V W X Y Z # 

Superhero Brother Tabs (ver.2)

G Love And Special Sauce Tabs
Rating:
4/5 (2 votes)
Superhero Brother lessons Tabs too difficult? Try these video lessons and learn fast
                (Intro)

You have to listen to the song in order to find out where to pluck the A string on each 
and the space between.

|----5--5-5---5---5-5-5--------------------|
|----5--5-5---5---5-5-5---7---5------------|
|----6--6-6---6---6-6-6--------------------|
|------------------------------------------|
|----0--0-0---0---0-0-0---0---0----0---00--|
|------------------------------------------|

|-------3----------3----------------------------------|
|--3//5---5—--3//5----5--3--------2-3-2-3-2-3-2-3h5---|
|-----------------------------------------------------|
|-----------------------------------------------------|
|--0----0-0---0-------0--0--0--00-0-0-0-0-0-0-0-0-----|
|-----------------------------------------------------|


|---3-------------------------------------|
|------5--3--2--3---2---------------------|
|-------------------2--2--1—1//5----------|
|----------------------2--1—1//5----------|
|---0--0--0--0--0---0---------------------|
|-----------------------------------------|
            
Submit corrections

comments powered by Disqus
↑ Back to top | G Love And Special Sauce Tabs for Superhero Brother. Lyrics for acoustic guitar and electric guitar. Tablatures and chords are parodies/interpretations of the original songs. You may use it for private study, scholarship, research or language learning purposes only