>
 >
Superhero Brother Intro

Superhero Brother Intro Guitar Tabs

G Love And Special Sauce - Superhero Brother Intro chords, tabs, tablatures, lyrics

Guitar lessons | Add/correct | Request | Top 50 tabs Artists:  A B C D E F G H I J K L M N O P Q R S T U V W X Y Z 0-9

Superhero Brother Intro Guitar Tabs – G Love And Special Sauce

CD, Sheet music, Poster

Do you like Superhero Brother Intro? Share with your friends now
Tabs

You have to listen to the song in order to find out where to pluck the A string on each 
and the space between.

|----5--5-5---5---5-5-5--------------------|
|----5--5-5---5---5-5-5---7---5------------|
|----6--6-6---6---6-6-6--------------------|
|------------------------------------------|
|----0--0-0---0---0-0-0---0---0----0---00--|
|------------------------------------------|

|-------3----------3----------------------------------|
|--3//5---5--3//5----5--3--------2-3-2-3-2-3-2-3h5---|
|-----------------------------------------------------|
|-----------------------------------------------------|
|--0----0-0---0-------0--0--0--00-0-0-0-0-0-0-0-0-----|
|-----------------------------------------------------|


|---3-------------------------------------|
|------5--3--2--3---2---------------------|
|-------------------2--2--11//5----------|
|----------------------2--11//5----------|
|---0--0--0--0--0---0---------------------|
|-----------------------------------------|





Comments


Popular G Love And Special Sauce tabs & chords
Everybody Bass Tabs
Leaving The City Bass Tabs
Home Tabs
Honor And Harmony Intro Tabs
Kick Drum Tabs
Milk And Sugar Tabs
Rhyme For The Summertime Tabs
Still Hangin Around Tabs
Free At Last Ukulele
Soft And Sweet Ukulele


Song lyrics



↑ Back to top | Tablatures and chords are parodies/interpretations of the original songs. You may use it for private study, scholarship, research or language learning purposes only
© 2014 AZChords.com Contact us | Privacy policy | DMCA | Add/correct tabs | Request tabs | Top 50 tabs