» » »

Gloria Gaynor, I Will Survive Tabs (ver.1)

Artists:  A B C D E F G H I J K L M N O P Q R S T U V W X Y Z # 

I Will Survive Tabs (ver.1)

Gloria Gaynor Tabs
Rating:
4/5 (2 votes)
I Will Survive lessons Tabs too difficult? Try these video lessons and learn fast
                -----------------------------------------------------------------------------
-----------------------------------------------------------------------------


Tuning:standard

This is the very first tablature I've submitted, so keep in mind that it's far 
(It's possible to play the "intro" part through whole song, it's also possible to 
mix between the tabs and chords while playing.) Enjoy!

 Am		            Dm		
 ______		        ______	 	
5oooooo		       1|||||o	
6||||||		       2|||o||	
7|oo|||		       3||||o|		
8||||||		       4||||||		
 577555		        x00231		

 G		             C		
 ______		        ______		
3oooooo	       3|ooooo	
4|||o||	       4||||||	
5|oo|||	       5||ooo|		
6||||||	       6||||||		
 355433		        x35553

 F		             E		
 ______		        ______		
1oooooo		       1|||o||	
2|||o||		       2|oo|||	
3|oo|||		       3||||||		
4||||||		       4||||||		
 133211		        x22100


Dm(2)
 ______
5|ooooo
6||||o|
7||oo||
8||||||
 x57765


(Listen to the song, try to figure out how to play the tablatures I've written) -smile-

INTRO:

e|--5-5-555-7-8--7-5-5---5-5-5--5-3-3-3-5-3-3-1-1-0-0-------0-0-0---0--0--0--0--0--0--0-|
B|--5------------6--------------4-------4-------1-------------0-----1-------------------|
G|--5------------7--------------5-------5-------0-------------1-----2-------------------|
D|------------------------------3-------3-------2-------------0-----3-------------------|
A|------------------------------3-------3-------3-------------2-----0-------------------|
E|------------------------------------------------------------3-------------------------|
                                                   

e|--0-------0-------0--------------0-0-0-4-4-4-5s7--4--4--4-----------------------------|
B|--3-3-3-3---3-3-3-0--------------0-----5----------------------------------------------|
G|--2---------------1--------------1-----4----------------------------------------------|
D|--3---------------2--------------2----------------------------------------------------|
A|--0---------------2--------------2----------------------------------------------------|
E|------------------0--------------0----------------------------------------------------|

INTRO:

First I was afraid, I was petrified
                           
Kept thinking I could never live without you by my side
      
But I spent so many nights thinking how you did me wrong
       
I grew strong, I learned how to carry on
             
and so you're...

                          (Beginners Rythm: Down,Down,Up,Up,Down,Up)

    Am              Dm(2)
...back from outer space
              G                                 C
I just walked in to find you here with that sad look upon your face
              F                                    Dm
I should have changed my stupid lock I should have made you leave your key
         E               E               E           E
If I had known for just one second you'd be back to bother me

{Chorus}
          Am              Dm(2)
Go on now go walk out the door
          G                             C                 
just turn around now 'cause you're not welcome anymore
   F                             Dm
weren't you the one who tried to hurt me with goodbye
              E               E              E
you think I'd crumble you think I'd lay down and die

           Am           Dm(2)
Oh no, not I, I will survive
   G                                  C
as long as i know how to love I know I will stay alive
         F                             Dm
I've got all my life to live, I've got all my love to give
            E           E
and I'll survive, I will survive


{Verse Two}
        Am                            Dm(2)
It took all the strength I had not to fall apart
            G                             C
kept trying hard to mend the pieces of my broken heart
       F                                  Dm
and I spent oh so many nights just feeling sorry for myself
          E                    E
I used to cry,   Now I hold my head up high
            Am          Dm(2)
and you see me somebody new
             G                                 C
I'm not that chained up little person still in love with you
           F                                  Dm
and so you felt like dropping in and just expect me to be free
        E                           E
now I'm saving all my loving for someone who's loving me

{Repeat Chorus}

{Fade}
            

comments powered by Disqus
↑ Back to top | Gloria Gaynor Tabs for I Will Survive. Lyrics for acoustic guitar and electric guitar. Tablatures and chords are parodies/interpretations of the original songs. You may use it for private study, scholarship, research or language learning purposes only