>
 >
Salsa De Noche

Salsa De Noche Guitar Tabs

Gipsy Kings - Salsa De Noche chords, tabs, tablatures, lyrics

Guitar lessons | Add/correct | Request | Top 50 tabs Artists:  A B C D E F G H I J K L M N O P Q R S T U V W X Y Z 0-9

Salsa De Noche Guitar Tabs – Gipsy Kings

CD, Sheet music, Poster

Do you like Salsa De Noche? Share with your friends now
Tabs
Gipsy Kings - Salsa de Noche

Enjoy this. The rhythm is a bit tough, but you'll get it with practice. Hope this helps.


Song Order: A A A B A C A A D A E A

Part A

-3--3--3-2-3-2----|3--3--3--2-3-0--|5--5--5-3-2-3-0-|----------------|
-0--0--0-0-0-0----|5--5--5--5-5-1--|--------0-0-0-0-|----------------|
---------------4/5|--5--5----------|5--5--5---------|----------------|
---2--2-----------|----------------|----------------|----------------|
------------------|----------------|--0--0----------|----------------|
------------------|----------------|----------------|-0--------------|


Part B (:27)

|   |
-------------7-8---7-10-10---10-|10-8-8-7--8-7--------------|-8---8---7---7---5---5---3---3|---5---5----------|
-----------8--------------------|----------------8----------|------------------------------|------------------|
---------9----------------------|-------------------9--9----|-9---9---7---7---5---5---4---4|---5---5----------|
------10------------------------|---------------------------|------------------------------|------------------|
--------------------------------|---------------------------|------------------------------|------------------|
--------------------------------|---------------------------|------------------------------|------------------|


--------7-8---7-7-10-10-10-8-8-7-7-|7--8-7--8-7-------------|--------------------------------|------------|
------8----------------------------|-------------8----------|--8---8---7---7---5---5---4-----|4-----------|
----9------------------------------|----------------9--9----|--------------------------------|------------|
-10--------------------------------|------------------------|--9---9---7---7---5---5---4-----|4-----------|
-----------------------------------|------------------------|--------------------------------|------------|
-----------------------------------|------------------------|--------------------------------|------------|

						 /--6--\ /--6--\  /--6--\ /--6--\ /---6---\ /---6---\
-------|-------|-------|-------|-------|--------|----------------|------------------------------------|
-------------------------------|---------------------------------|------------------------------------|
-------------------------------|---------------------------------|--------------------------7---------|
-------------------------------|---------------------------------|---------------------7910--109-7----|
--77--77--77--77--77--77--77--7|7--77--77--77--7|777-777-777-777-|777-777-777-777-7910------------109-|
-------------------------------|---------------------------------|------------------------------------|


/---6---\ /---6--\ 						  |/---6--\
----------------78-10--8-7---7----------|----------------------|----------78-10--8-7---7---|
-----------78-10----------------8-10--8-|7---8--7--8-7---------|-----78-10-----------------|
--------7-9-----------------------------|---------------9^-----|----9----------------------|
---7-910--------------------------------|----------------------|---------------------------|
910-------------------------------------|----------------------|---------------------------|
----------------------------------------|----------------------|---------------------------|


--108--10101012-12121214-14141415--14--10-12----|10----------------------------------|
-----10--------------------------------------13-|---13-12--10-13-12-10-8-7--8-7------|
------------------------------------------------|--------------------------------9---|
------------------------------------------------|------------------------------------|
------------------------------------------------|------------------------------------|
------------------------------------------------|------------------------------------|

|   |
------------7-8---7-7-10-10-10-|10-8-8-7--8-7-------------|-8---8---7---7---5---5---3---3|---5---5----------|
----------8--------------------|---------------8----------|------------------------------|------------------|
--------9----------------------|------------------9--9----|-9---9---7---7---5---5---4---4|---5---5----------|
-----10------------------------|--------------------------|------------------------------|------------------|
-------------------------------|--------------------------|------------------------------|------------------|
-------------------------------|--------------------------|------------------------------|------------------|

|   |
------------7-8---7-7-10-10-10-|10-8-8-7--8-7-------------|--------------------------------|------------|
----------8--------------------|---------------8----------|--8---8---7---7---5---5---4-----|4-----------|
--------9----------------------|------------------9--9----|--------------------------------|------------|
-----10------------------------|--------------------------|--9---9---7---7---5---5---4-----|4-----------|
-------------------------------|--------------------------|--------------------------------|------------|
-------------------------------|--------------------------|--------------------------------|------------|

 Part C (1:31)
							              /-3\
-----------------------------------|------------|-------------------7-87---7-10-8--7-|7------------|
---------------------7h8-8-8--7--8-|7-----------|7h8-8-8-10-10-10-------10-----------|-------------|
-------------8-8-8-9---------------|------------|------------------------------------|-------------|
--9-10-10-10-----------------------|------------|------------------------------------|-------------|
-----------------------------------|------------|------------------------------------|-------------|
-----------------------------------|------------|------------------------------------|-------------|


--12---12-12--11-11---11---11---11---11-|11h12-12-12-11--11--11---14-14h15-15--15-|
----------------------------------------|-----------------------------------------|
----------------------------------------|-----------------------------------------|
----------------------------------------|-----------------------------------------|
----------------------------------------|-----------------------------------------|
----------------------------------------|-----------------------------------------|


-15----14-14-12-12-12-11-11-11\\8-8-7-7--7-|7-87---7-------------------|
-------------------------------------------|----10----10-8--7-87--7----|
-------------------------------------------|--------------------9----9-|
-------------------------------------------|---------------------------|
-------------------------------------------|---------------------------|
-------------------------------------------|---------------------------|

 Part D (2:07)
|   |
------------7-8--7-10-10---10-|10--8-7--8-7---------------|--8---8---7---7---5---5---3---3|---5---5----------|
--------8-8-8-8--8--8--8----8-|-8--8-8--8-8---8-----------|-------------------------------|------------------|
------9-9-9-------------------|---------------9--9--9-----|--9---9---7---7---5---5---4---4|---5---5----------|
-----10-----------------------|------------------9--9-----|-------------------------------|------------------|
------------------------------|---------------------------|-------------------------------|------------------|
------------------------------|---------------------------|-------------------------------|------------------|



---------7-8--7-7-10-10-10-8-8-7-7-|7/8-8-8--7-7-8-7----------|--------------------------------|
-----8-8-8-8--8-8--8--8--8-8-8-8-8-|8---8-8--8-8-8-8--8-------|--8---8---7---7---5---5---4-----|
---9-9-9---------------------------|------------------9--9----|--------------------------------|
--10-------------------------------|---------------------9----|--9---9---7---7---5---5---4-----|
-----------------------------------|--------------------------|--------------------------------|
-----------------------------------|--------------------------|--------------------------------|



------------------------|--------------------7-8/10-7-8-10/12-12-|12/15-15-15--14--12-12--------|
4---------------------7-|7/8-8-10h12p10-8-10---------------------|-------------------------12---|
------------------7-9---|----------------------------------------|------------------------------|
4----------7-9-10-------|----------------------------------------|------------------------------|
--------10--------------|----------------------------------------|------------------------------|
------------------------|----------------------------------------|------------------------------|



-12-12--10-10--8-8--7-|7/8--8---------------|
----------------------|---------------------|
-12-12--11-11--9-9--9-|9----9---------------|
----------------------|---------------------|
----------------------|---------------------|
----------------------|---------------------|


|   |
-------------7-8--7-7-10-10-10-|10\8-8-7--8-7--------------|--12-12--10-10--8-8--7h8---|7-------------8---|
---------8-8-8-8--8-8--8-------|-----8-8--8-8---8----------|---------------------------|------------------|
-------9-9-9-------------------|----------------9--9-9-----|--12-12--11-11--9-9--8-----|8-------------9---|
------10-----------------------|-------------------9-9-----|---------------------------|------------------|
-------------------------------|---------------------------|---------------------------|------------------|
-------------------------------|---------------------------|---------------------------|------------------|



|7-------------10---|10--8-8--7-7-----|--------------------|
|-------------------|-----------------|--------------------|
|8-------------11---|11--9-9--8-8-----|--------------------|
|-------------------|-----------------|--------------------|
|-------------------|-----------------|--------------------|
|-------------------|-----------------|--------------------|

Part E (3:00)

  /-----6----\ /-----6----\ /-----6----\ /-----6----\  /-------6-------\ /-------6-------\
------------------------------------------------------|------------------------------------
--10-8-7---7-8-10-8-7---7-8-10-8-7---7-8-10-8-7---7-8-|12-10----------10-12-10----------10-
---------9------------9------------9------------9-----|------12-11-12----------12-11-12----
------------------------------------------------------|------------------------------------
------------------------------------------------------|------------------------------------
------------------------------------------------------|------------------------------------


 /-------6-------\ /-------6-------\  /-------6-------\ /-------6-------\ /-------6-------\
-------------------------------------|-------------------------------------------------------12---|
-12-10----------10 12-10----------10-|13-12-10----10-12-13-12-10----10-12-13-12-10----10-12-------|
-------12-11-12----------12-11-12----|---------12----------------12----------------12-------------|
-------------------------------------|------------------------------------------------------------|
-------------------------------------|------------------------------------------------------------|
-------------------------------------|------------------------------------------------------------|



|--151515-15-15-15-15-15-15-15-15-15-14---12--|
|---------------------------------------------|
|---------------------------------------------|
|---------------------------------------------|
|---------------------------------------------|
|---------------------------------------------|


 /-------6-------\ /-------6-------\ /-------6-------\ /-------6-------\
-15-14-12-15-14-12-15-14-12-15-14-12-15-14-12-15-14-12-15-14-12-12-14-15-|17-17---17-17---17-17----15--15---14-12-|
-------------------------------------------------------------------------|----------------------------------------|
-------------------------------------------------------------------------|----------------------------------------|
-------------------------------------------------------------------------|----------------------------------------|
-------------------------------------------------------------------------|----------------------------------------|
-------------------------------------------------------------------------|----------------------------------------|


  /-------6-------\ /-------6-------\ /-------6-------\ /-------6-------\
--15-14-12-15-14-12-15-14-12-15-14-12-15-14-12-15-14-12-15-14-12-15-14-12-|
--------------------------------------------------------------------------|
--------------------------------------------------------------------------|
--------------------------------------------------------------------------|
--------------------------------------------------------------------------|
--------------------------------------------------------------------------|


 /-------6-------\ /-------6-------\ /-------6-------\ /-------6-------\
-15-14-12-15-14-12-15-14-12-15-14-12-15-14-12-15-14-12-15-14-12-15-14-12-|
-------------------------------------------------------------------------|
-------------------------------------------------------------------------|
-------------------------------------------------------------------------|
-------------------------------------------------------------------------|
-------------------------------------------------------------------------|


 /-------6-------\ /-------6-------\ /-------6-------\ /-------6-------\
-12-14-15-15-14-12----12-14-14-12----------12-12-------------------------|
-------------------15-------------15-13-15-------15-13-12-13-15-15-13-12-|
-------------------------------------------------------------------------|
-------------------------------------------------------------------------|
-------------------------------------------------------------------------|
-------------------------------------------------------------------------|

	1/16 notes - practice slow
  /**********************************************************\
------------------------------------------------------------------|
--13-12-10--------------------------------------------------------|
-----------12-11-9-12-11-9----------------------------------------|
---------------------------12-10-9-12-10-9-7-5-4-7-5-4------------|
-------------------------------------------------------7-6-3-3----|
------------------------------------------------------------------|



-----------------------------|----------------------------|
-----------------------------|----------------------------|
-----------------------------|-------------------|
-----------------------------|----------------------------|
--222-2-2-2-2-2-0------------|----2/7---------------------|
--------------------3-2---3--|0---------------------------|





Comments


Popular Gipsy Kings tabs & chords
Volare Chords
Caminando Por La Calle Tabs
Galaxia Tabs
Hotel Californa Tabs
Hotel California Tabs
Lagrimas Tabs
Li Tuormy Tabs
Majiwi Tabs
Montana Tabs
El Camino Ukulele


Song lyrics



↑ Back to top | Tablatures and chords are parodies/interpretations of the original songs. You may use it for private study, scholarship, research or language learning purposes only
© 2014 AZChords.com Contact us | Privacy policy | DMCA | Add/correct tabs | Request tabs | Top 50 tabs