» » »

Gipsy Kings, Pharaon Tabs (ver.1)

Artists:  A B C D E F G H I J K L M N O P Q R S T U V W X Y Z # 

Pharaon Tabs (ver.1)

Gipsy Kings Tabs
Rating:
0/5 (0 votes)
Pharaon lessons Tabs too difficult? Try these video lessons and learn fast
                
Intro:        part I

Dm / / /      Dm / / /
Bb / / /      Bb / / /
Gm / / /      Gm / / /
Dm/A7/Dm/A7   A7 / / /


Part II
Dm                    Bb                    Gm                      A7
|-5---5---5---5---5---|-5---5---5---5---5---|-5---5---5---5---5---5---|
|---8---6---5---6-----|---8---6---5---6-----|---8---6---5---6-------5-|
|-------------------7-|-------------------7-|-------------------7-----|
|---------------------|---------------------|-------------------------|
|---------------------|---------------------|-------------------------|
|---------------------|---------------------|-------------------------|

Part III

Part IV:
      Dm              Bb                                      
|---------------------|--------------------------------------|
|---------------------|--------------------------------------|
|-------2---2-2h3-2---|--------------------------------------|
|-2h3h5---5---------5-|3-2-2h3h5p3-2---2h3h5p3p2---2h3h5p3p2-|
|---------------------|--------------------------------------|
|---------------------|--------------------------------------|
|---------------------|--------------------------------------|

Gm                              A7
|---------------------------------|
|-------------------------3-3-3-2-|
|-------------------0-2-3---------|
|5-3---------0-2--3---------------|
|----------3----------------------|
|----6-5-6------------------------|

Part V
Rep. Part II

Part VI:
 Dm                     Bb                     Gm                   A7
|----------------------|----------------------|-----------------------|
|----------------------|----------------------|-----------------------|
|-----2-----2-------2--|-----1----1----1----1-|{2-3---3p2p0-----------|
|---3-----3---3---3----|---3----3----3----3---|}0-----------3-2-2-0-4-|
|-5-----5-------5------|-1--------------------|{1---------------------|
|----------------------|----------------------|.3---------------------|

Part VII:
        Dm                Bb                                  Gm
|---0-1h3p0-----------0-1-0-----------------------------------3-1-0-
|-3---------------1-2-------3p1-3p1---------------1-3p1---1-3-------
|-------------2h3-------------------3-2-0---0-2-3-------3-----------
|-----------------------------------------3-------------------------
|-------------------------------------------------------------------
|-------------------------------------------------------------------
                                 A7
-3-3-3-3-1-0---3-3-3-3-1-0-|-----5-5-6-5-6p5---|
---------------------------|-6-8-------------8-|
---------------------------|-------------------|
---------------------------|-------------------|
---------------------------|-------------------|
---------------------------|-------------------|
     Dm                        Bb                                    Gm
 [simplified....................]
|----8-10----8-10-12-8-10-12-|-13---12-10-12----10----------------------|
|-11------11-----------------|---------------13----11-13-10-11-10-11-10-|
|----------------------------|------------------------------------------|
|----------------------------|------------------------------------------|
|----------------------------|------------------------------------------|
|----------------------------|------------------------------------------|

|----13-13------13-13-13-12----13-13-|
|-11---------11-------------11-------|
|------------------------------------|
|------------------------------------|
|------------------------------------|
|------------------------------------|
     A7                                     Dm
 [simplified.........]
|-10-12----10-----------------------------------------------------------|
|-------13----11-13-10---10-11-10----10---------------------------------|
|---------------------------------12-----12-12-10-9-10-------------9-10-|
|------------------------------------------------------12-11-12-12------|
|-----------------------------------------------------------------------|
|-----------------------------------------------------------------------|
 Bb                                                         Gm
 [simplified..............................................]
|----------------------------------------------------------------------------
|---------------10----10-11-10-11-13-13-11-10--------------------------------
|-9-10-12-10-12----12-------------------------12-10-9------------------------
|-----------------------------------------------------12-10------------------
|-----------------------------------------------------------13-13-13-13p12p10
|----------------------------------------------------------------------------
                                 A7
------------------------------------|
------------------------------------|
------------------------------------|
------------------------------------|
-12---13-13p12p10-12-13-13p12p10-12-|
------------------------------------|

Part VIII(4x):
 Dm                      Bb7
|--------------------------------------------------|
|--------------------------------------------------|
|-----2------2-------2-------1-----1------1------1-|
|---3------3---3---3-------3------------3----------|
|-5------5-------5-------1-----1------1------1-----|
|--------------------------------------------------|
 Gm               A7
|-----------------------------------|
|-----------------------------------|
|---0-2-0-3-0-3-----2-3-2-3-2-3-2-3-|
|-----------------------------------|
|-----------------0-----------------|
|-3---------------------------------|

End:
  A7 Bb A 
|-5--6--5-|
|-5--6--5-|
|-6--7--6-|
|-5--8--7-|
|-7--8--7-|
|-5--6--5-|
            
Submit corrections

comments powered by Disqus
↑ Back to top | Gipsy Kings Tabs for Pharaon. Lyrics for acoustic guitar and electric guitar. Tablatures and chords are parodies/interpretations of the original songs. You may use it for private study, scholarship, research or language learning purposes only