>
 >
Bello E Impossibile

Bello E Impossibile Guitar Tabs

Gianna Nannini - Bello E Impossibile chords, tabs, tablatures, lyrics

Guitar lessons | Add/correct | Request | Top 50 tabs Artists:  A B C D E F G H I J K L M N O P Q R S T U V W X Y Z 0-9

Bello E Impossibile Guitar Tabs – Gianna Nannini

CD, Sheet music, Poster

Do you like Bello E Impossibile? Share with your friends now
Bass TabsChordsTabsUkulele

Tuning: E A D G B E

                               


Gtr I (E A D G B E) - 'Strings'
Gtr II (E A D G B E) - 'Voice'
Gtr III (E A D G B E) - 'Guitar'

  Q=113
 4/4
  Gtr I
  W            H    H         H                H
|------------|-------------|-----------------------------------|
|------------|-9----7------|--9--------------------------------|
|------------|-9----8------|--9----------------9---------------|
|------------|-9----9------|-11---------------11---------------|
|------------|-------------|------------------12---------------|
|------------|-------------|-----------------------------------|
|
| Gtr II
| W            H    Q.   E    E S S +S  S S S  E  E    Q
|------------|-------------|--9---7-(7)---5----4--2------------|
|------------|-5----7------|---------------------------5-------|
|------------|-------------|-----------------------------------|
|------------|-------------|-----------------------------------|
|------------|-------------|-----------------------------------|
|------------|-------------|-----------------------------------|
|
| Gtr III
| H    Q  Q    W              H                E  S S  S  S  E
|------------|-------------|---------------------12---19-24----|
|------------|-------------|--------------------------------24-|
|------------|-------------|-----------------------------------|
|------------|-------------|-----------------------------------|
|------------|-------------|-----------------------------------|
|---------0--|-------------|-----------------------------------|


    H               H
|----------------------------------|
|---9---------------7--------------|
|---9---------------8--------------|
|---9---------------9--------------|
|----------------------------------|
|----------------------------------|
|
|   E  S S S S S S +E  S S S S S S
|------4---4---5-7-(7)-5---4---2---|
|--------------------------------5-|
|----------------------------------|
|----------------------------------|
|----------------------------------|
|----------------------------------|
|
|  +Q      Q        H
|----------------------------------|
|-(24)-----------------------------|
|----------------------------------|
|----------------------------------|
|----------------------------------|
|----------------------------------|


   H               H                 H       H
|----------------------------------|----------------|
|--9---------------7---------------|-9-------7------|
|--9---------------8---------------|-9-------8------|
|-11---------------9---------------|-9-------9------|
|----------------------------------|----------------|
|----------------------------------|----------------|
|
| +E  S S S S S S +E      E     Q    Q.   E +Q   Q
|----------------------------------|----------------|
|-(5)-4---5---7-5-(5)-----4--------|-5----7-(7)-----|
|----------------------------------|----------------|
|----------------------------------|----------------|
|----------------------------------|----------------|
|----------------------------------|----------------|
|
|  H               S   S  S  S  Q    W
|----------------------------------|----------------|
|----------------------------------|----------------|
|---------------------21-----------|----------------|
|-----------------21-----21-19-18--|----------------|
|----------------------------------|----------------|
|----------------------------------|----------------|


   H                Q.             E
|------------------------------------|
|--9---------------------------------|
|--9----------------9----------------|
|-11----------------7----------------|
|------------------------------------|
|------------------------------------|
|
|  E S S +S  S  S S E   E    Q
|--9---7-(7)----5---4---2------------|
|----------------------------5-------|
|------------------------------------|
|------------------------------------|
|------------------------------------|
|------------------------------------|
|
|  Q      E     S S E   S S  S  S  E
|------------------------------------|
|------------------------------------|
|------------------------------21----|
|----------------------21---21----21-|
|--------------19--------------------|
|------------------------------------|


    H               H                 H           H
|----------------------------------|---------------------------------|
|---9---------------7--------------|--9-----------7------------------|
|---9---------------8--------------|--9-----------8------------------|
|---9---------------9--------------|-11-----------9------------------|
|----------------------------------|---------------------------------|
|----------------------------------|---------------------------------|
|
|   E  S S S S S S +E  S S S S S S   +E  E E S S +E      E  +S  S E
|------4---4---5-7-(7)-5---4---2---|---------------------------------|
|--------------------------------5-|-(5)-4-5-7-5-(5)-----4--(4)------|
|----------------------------------|---------------------------------|
|----------------------------------|---------------------------------|
|----------------------------------|---------------------------------|
|----------------------------------|---------------------------------|
|
|  +H               H                 H           S   E.    +Q
|----------------------------------|---------------------------------|
|----------------------------------|---------------------------------|
|----------------------------------|-----------------21----(21)------|
|-(21)-----------------------------|-------------21------------------|
|----------------------------------|---------------------------------|
|----------------------------------|---------------------------------|


    H            +Q        +S  S E
|------------------------------------|
|---5------------(5)-------(5)-------|
|---6------------(6)-------(6)-------|
|---7------------(7)-------(7)-------|
|------------------------------------|
|------------------------------------|
|
|   E  E S S S S +S  S S S  E    S S
|---9--9-7---7-5-(5)---5----4----4---|
|------------------------------------|
|------------------------------------|
|------------------------------------|
|------------------------------------|
|------------------------------------|
|
|  +W
|------------------------------------|
|------------------------------------|
|-(21)-------------------------------|
|------------------------------------|
|------------------------------------|
|------------------------------------|


  H          +H          H           +Q      +S  S E
|----------------------|-----------------------------|
|-7----------(7)-------|-5-----------(5)-----(5)-----|
|-8----------(8)-------|-6-----------(6)-----(6)-----|
|-9----------(9)-------|-7-----------(7)-----(7)-----|
|----------------------|-----------------------------|
|----------------------|-----------------------------|
|
| E S S +Q    E  E E E   E E S S S S +S  S E  E    E
|-4---2-(2)------------|-9-9-7---7-5-(5)---5--4----2-|
|------------------2-5-|-----------------------------|
|----------------4-----|-----------------------------|
|----------------------|-----------------------------|
|----------------------|-----------------------------|
|----------------------|-----------------------------|
|
| W                      W
|----------------------|-----------------------------|
|----------------------|-----------------------------|
|----------------------|-----------------------------|
|----------------------|-----------------------------|
|----------------------|-----------------------------|
|----------------------|-----------------------------|


  H.                  Q    H     H        H              H
|------------------------|--------------|-----------------------|
|-7----------------------|-9------------|-9---------------------|
|-8----------------------|-9----11------|-9--------------9------|
|-9----------------------|-9-----9------|---------------11------|
|------------------------|--------------|---------------12------|
|------------------------|--------------|-----------------------|
|
| H     +E      E     Q    H     Q.   E   E S S +S  S E  E E Q
|-7-----(7)--------------|--------------|-9---7-(7)---5--4-2----|
|------------------------|-5-----7------|--------------------5--|
|------------------------|--------------|-----------------------|
|------------------------|--------------|-----------------------|
|------------------------|--------------|-----------------------|
|------------------------|--------------|-----------------------|
|
| H      S   S  S  S  Q    W              W
|--------------19-24-----|--------------|-----------------------|
|--------------------24--|--------------|-----------------------|
|-----------21-----------|--------------|-----------------------|
|------------------------|--------------|-----------------------|
|------------------------|--------------|-----------------------|
|------------------------|--------------|-----------------------|


   H                 H
|-----------------------------------|
|--9-----------------7--------------|
|--9-----------------8--------------|
|--9-----------------9--------------|
|-----------------------------------|
|-----------------------------------|
|
| +S  S S S S S S S +E  S S S S S S
|-------4---4---5-7-(7)-5---4---2---|
|-(5)-----------------------------5-|
|-----------------------------------|
|-----------------------------------|
|-----------------------------------|
|-----------------------------------|
|
|  W
|-----------------------------------|
|-----------------------------------|
|-----------------------------------|
|-----------------------------------|
|-----------------------------------|
|-----------------------------------|


   H             H                       H    H
|--------------------------------------|------------------|
|--9-------------7---------------------|-9----7-----------|
|--9-------------8---------------------|-9----8-----------|
|-11-------------9---------------------|-9----9-----------|
|--------------------------------------|------------------|
|--------------------------------------|------------------|
|
| +E  S S E S S +E      E    +S  S E     H    Q  +S  S E
|--------------------------------------|------------------|
|-(5)-4---5-7-5-(5)-----4----(4)-------|-5----7--(7)------|
|--------------------------------------|------------------|
|--------------------------------------|------------------|
|--------------------------------------|------------------|
|--------------------------------------|------------------|
|
|  H             S   S  S  S  S  S S S   H    H
|--------------------------------------|------------------|
|--------------------------------------|-0----------------|
|--------------------------------4-2-1-|------------------|
|--------------------------------------|------------------|
|---------------24--23-24-23-----------|------------------|
|----------------------------24--------|------------------|


   H              H
|-------------------------------|
|--9----------------------------|
|--9--------------9-------------|
|-11-------------11-------------|
|----------------12-------------|
|-------------------------------|
|
|  E S S +S  S E  E E   Q
|--9---7-(7)---5--4-2-----------|
|-----------------------5-------|
|-------------------------------|
|-------------------------------|
|-------------------------------|
|-------------------------------|
|
|  H              E S S S  S  E
|-------------------0---7-12----|
|----------------------------12-|
|-------------------------------|
|-------------------------------|
|-------------------------------|
|-------------------------------|


    H               H                 H               Q.         E
|----------------------------------|--------------------------------|
|---9---------------7--------------|--9---------------7-------------|
|---9---------------8--------------|--9---------------8-------------|
|---9---------------9--------------|-11---------------9-------------|
|----------------------------------|--------------------------------|
|----------------------------------|--------------------------------|
|
|   E  S S S S S S +E  S S S S S S   +E  S S S S S S +E  E +S  S E
|------4---4---5-7-(7)-5---4---2---|--------------------------------|
|--------------------------------5-|-(5)-4---5---7-5-(5)-4-(4)------|
|----------------------------------|--------------------------------|
|----------------------------------|--------------------------------|
|----------------------------------|--------------------------------|
|----------------------------------|--------------------------------|
|
|  +H               H                 W
|----------------------------------|--------------------------------|
|-(12)-----------------------------|--------------------------------|
|----------------------------------|--------------------------------|
|----------------------------------|--------------------------------|
|----------------------------------|--------------------------------|
|----------------------------------|--------------------------------|


  E   E   E   E   E   E   E E      S S  E    E    E    E    E   E E
|-------------------------------|--------------------------------------|
|-9-------9-------7-------7-----|--9---------9------------------7------|
|-9-------9-------8-------8-----|--9---------9--------11--------8------|
|-9---9---9---9---9---9---9-9---|-11---11---11---11---13----9---9-9----|
|-------------------------------|---------------------14---------------|
|-------------------------------|--------------------------------------|
|
| E   S S S S S S S S E   E S S    S S  S S  S S  S S +Q        Q
|-------------------------------|--5----5----5----4-2-(2)--------------|
|-----5-5-5---7---7-------------|--------------------------------------|
|---------------------8---6-4---|--------------------------------------|
|-------------------------------|--------------------------------------|
|-------------------------------|--------------------------------------|
|-------------------------------|--------------------------------------|
|
| S S S S Q       E   S S Q        S S  S S  Q         S  S S S E S S
|-------------------------------|--------------------------------------|
|-------------------------------|--------------------------------------|
|-------------------------------|--------------------------------------|
|-------------------------------|--------------------------------------|
|---------------------2---------|--4----4--------------2----2-----2----|
|-0---0-------------------------|--------------------------------------|


  E   E   E   E   E   E   E E      E    E    E    E    E    E   E   E
|-------------------------------|---------------------------------------|
|-9-------9-------7-------7-----|--9---------9------------------7-------|
|-9-------9-------8-------8-----|--9---------9--------11--------8-------|
|-9---9---9---9---9---9---9-9---|-11---11---11---11---13----9---9---9---|
|-------------------------------|---------------------14----------------|
|-------------------------------|---------------------------------------|
|
| E   S S S S S S S S S S E S S    S S  S S  S S  S S +E    E   Q
|-------------------------------|--5----5----5----4-2-(2)---------------|
|-----5-5-5---7---7-------------|---------------------------------------|
|---------------------8---6-4---|---------------------------------------|
|-------------------------------|---------------------------------------|
|-------------------------------|---------------------------------------|
|-------------------------------|---------------------------------------|
|
| S S S S Q       S S S S Q        E    S S  E    S S  S  S S S S S S S
|-------------------------------|---------------------------------------|
|-------------------------------|---------------------------------------|
|-------------------------------|---------------------------------------|
|-------------------------------|---------------------------------------|
|-----------------2---2---------|-------4---------2----2----2---2-------|
|-0---0-------------------------|-----------------------------------0---|


  E   E   E   E   E   E   E E      E    E    E    E    E    E   E E
|-------------------------------|--------------------------------------|
|-9-------9-------7-------7-----|--9---------9------------------7------|
|-9-------9-------8-------8-----|--9---------9--------11--------8------|
|-9---9---9---9---9---9---9-9---|-11---11---11---11---13----9---9-9----|
|-------------------------------|---------------------14---------------|
|-------------------------------|--------------------------------------|
|
| E   S S S S S S S S S S E S S    S S  S S  S S  S S +Q        Q
|-------------------------------|--5----5----5----4-2-(2)--------------|
|-----5-5-5---7---7-------------|--------------------------------------|
|---------------------8---6-4---|--------------------------------------|
|-------------------------------|--------------------------------------|
|-------------------------------|--------------------------------------|
|-------------------------------|--------------------------------------|
|
| S S S S Q       Q       E E      S S  S S  Q         S  S S S E S S
|-------------------------------|--------------------------------------|
|-------------------------------|--------------------------------------|
|-------------------------------|--------------------------------------|
|-------------------------------|--------------------------------------|
|---------------------------2---|--4----4--------------2----2-----2----|
|-0---0-------------------------|--------------------------------------|


  E   E   E   E   E   E   E   E
|---------------------------------|
|-9-------9-------7-------7-------|
|-9-------9-------8-------8-------|
|-9---9---9---9---9---9---9---9---|
|---------------------------------|
|---------------------------------|
|
| E   S S S S S S S S S S S S S S
|---------------------------------|
|-----5-5-5---7---7---------------|
|---------------------8---6---4---|
|---------------------------------|
|---------------------------------|
|---------------------------------|
|
| S S S S E   S S Q       E   E
|---------------------------------|
|---------------------------------|
|---------------------------------|
|---------------------------------|
|-----------------------------2---|
|-0---0-------0-------------------|


   E    E    E    E    E    E E E    H        +H
|---------------------------------|-------------------------|
|--9---------9----------------7---|-------------------------|
|--9---------9--------11------8---|--9--------(9)-----------|
|-11---11---11---11---13----9-9-9-|-11-------(11)-----------|
|---------------------14----------|-12-------(12)-----------|
|---------------------------------|-------------------------|
|
|  S S  S S  S S  S S +Q      Q      Q  S E.  +S  E. +S  E.
|--5----5----5----4-2-(2)---------|-------4---(4)-2--(2)----|
|---------------------------------|----------------------5--|
|---------------------------------|-------------------------|
|---------------------------------|-------------------------|
|---------------------------------|-------------------------|
|---------------------------------|-------------------------|
|
|  S S  S S  E    S S  S  S E Q      W
|---------------------------------|-------------------------|
|---------------------------------|--5----------------------|
|---------------------------------|-------------------------|
|---------------------------------|-------------------------|
|--4----4---------4----2----------|-------------------------|
|---------------------------------|-------------------------|


   H          +Q     +S  S E      H            +H
|------------------------------|---------------------------|
|--7----------(7)----(7)-------|--9------------(9)---------|
|--8----------(8)----(8)-------|--9------------(9)---------|
|--9----------(9)----(9)-------|-11-----------(11)---------|
|------------------------------|---------------------------|
|------------------------------|---------------------------|
|
| +S  E. +Q   +S  E. +E.     S   +S  S E S E.  +Q   +S  E.
|------------------------------|------------------------4--|
|-(5)-4--(4)--(4)-5--(5)-----4-|-(4)-------2---(2)--(2)----|
|------------------------------|---------------------------|
|------------------------------|---------------------------|
|------------------------------|---------------------------|
|------------------------------|---------------------------|
|
|  W                              W
|------------------------------|---------------------------|
|------------------------------|---------------------------|
|------------------------------|---------------------------|
|------------------------------|---------------------------|
|------------------------------|---------------------------|
|------------------------------|---------------------------|


   H          +H               W
|--------------------------|--------------------------|
|--7----------(7)----------|---5----------------------|
|--8----------(8)----------|---6----------------------|
|--9----------(9)----------|---7----------------------|
|--------------------------|--------------------------|
|--------------------------|--------------------------|
|
| +S  E. +Q   +S  S E Q        Q   S E. +S  E. +S  E.
|-(4)-2--(2)--(2)----------|---------4--(4)-2--(2)----|
|--------------------------|-----------------------5--|
|--------------------------|--------------------------|
|--------------------------|--------------------------|
|--------------------------|--------------------------|
|--------------------------|--------------------------|
|
|  H           Q      E  E    +W
|---------------------7-12-|-(12)---------------------|
|--------------------------|--------------------------|
|--------------------------|--------------------------|
|--------------------------|--------------------------|
|--------------------------|--------------------------|
|--------------------------|--------------------------|


   H          +H               H           +Q    +S  S  E
|---------------------------|-----------------------------|
|--7----------(7)-----------|--9-----------(9)---(9)------|
|--8----------(8)-----------|--9-----------(9)---(9)------|
|--9----------(9)-----------|-11----------(11)--(11)------|
|---------------------------|-----------------------------|
|---------------------------|-----------------------------|
|
| +S  E. +Q   +S  E. +S  E.   +Q   +S  E.  +Q    +S  E.
|---------------------------|------------------------4----|
|-(5)-4--(4)--(4)-5--(5)-4--|-(4)--(4)-2---(2)---(2)------|
|---------------------------|-----------------------------|
|---------------------------|-----------------------------|
|---------------------------|-----------------------------|
|---------------------------|-----------------------------|
|
|  W                           W
|---------------------------|-----------------------------|
|---------------------------|-----------------------------|
|---------------------------|-----------------------------|
|---------------------------|-----------------------------|
|---------------------------|-----------------------------|
|---------------------------|-----------------------------|


   H          +E  E E E   E E   E   E   E   E E E
|-----------------------|---------------------------|
|--7----------(7)---7---|-9-----9-------7-----7-----|
|--8----------(8)---8---|-9-----9-------8-----8-----|
|--9----------(9)---9---|-9-9---9---9---9---9-9-9---|
|-----------------------|---------------------------|
|-----------------------|---------------------------|
|
| +S  E. +Q   +Q    Q     E S S S S S S S S E E S S
|-(4)-2--(2)--(2)-------|---------------------------|
|-----------------------|---5-5-5---7---7-----------|
|-----------------------|-------------------8-6-4---|
|-----------------------|---------------------------|
|-----------------------|---------------------------|
|-----------------------|---------------------------|
|
|  H           Q    Q     W
|-----------------------|---------------------------|
|-----------------------|---------------------------|
|-----------------------|---------------------------|
|-----------------------|---------------------------|
|-----------------------|---------------------------|
|-------------------0---|---------------------------|


   E    E    E    E    E  E E E    E E   E   E   E   E   E E
|-------------------------------|-------------------------------|
|--9---------9--------------7---|--9-----9-------7-------7------|
|--9---------9--------11----8---|-11-----9-------8-------8------|
|-11---11---11---11---13--9-9-9-|--9-9---9---9---9---9---9-9----|
|---------------------14--------|-------------------------------|
|-------------------------------|-------------------------------|
|
|  S S  S S  S S  S S +Q    Q      E S S S S S S S S S S E S S
|--5----5----5----4-2-(2)-------|-------------------------------|
|-------------------------------|----5-5-5---7---7--------------|
|-------------------------------|--------------------8---6-4----|
|-------------------------------|-------------------------------|
|-------------------------------|-------------------------------|
|-------------------------------|-------------------------------|


   E    E    E    E    E   E     E E   E E   E   S S E   E   E E
|------------------------------------|-----------------------------|
|--9---------9-------------------7---|-9-----9-------7-------7-----|
|--9---------9--------11---------8---|-9-----9-------8-------8-----|
|-11---11---11---11---13---9-----9-9-|-9-9---9---9---9---9---9-9---|
|---------------------14-------------|-----------------------------|
|------------------------------------|-----------------------------|
|
|  S S  S S  S S  S S +E   E     Q     E S S S S S S S S S S E S S
|--5----5----5----4-2-(2)------------|-----------------------------|
|------------------------------------|---5-5-5---7---7-------------|
|------------------------------------|-------------------8---6-4---|
|------------------------------------|-----------------------------|
|------------------------------------|-----------------------------|
|------------------------------------|-----------------------------|
|
| Gtr III
|  H                   E   S  S  Q     W
|----------------------------12------|-----------------------------|
|-------------------------12----12---|-----------------------------|
|------------------------------------|-----------------------------|
|------------------------------------|-----------------------------|
|------------------------------------|-----------------------------|
|------------------------------------|-----------------------------|


   E    E    E    E    E  E E E   E E   E   E   E   E   E   E
|-------------------------------|-------------------------------|
|--9---------9--------------7---|-9-----9-------7-------7-------|
|--9---------9--------11----8---|-9-----9-------8-------8-------|
|-11---11---11---11---13--9-9-9-|-9-9---9---9---9---9---9---9---|
|---------------------14--------|-------------------------------|
|-------------------------------|-------------------------------|
|
|  S S  S S  S S  S S +Q    Q     E S S S S S S S S S S S S S S
|--5----5----5----4-2-(2)-------|-------------------------------|
|-------------------------------|---5-5-5---7---7---------------|
|-------------------------------|-------------------8---6---4---|
|-------------------------------|-------------------------------|
|-------------------------------|-------------------------------|
|-------------------------------|-------------------------------|


   E    E    E    E    E  E E E   H    H         H                H
|-------------------------------|-------------|--------------------------|
|--9---------9--------------7---|-9----7------|--9-----------------------|
|--9---------9--------11----8---|-9----8------|--9----------------9------|
|-11---11---11---11---13--9-9-9-|-9----9------|-11---------------11------|
|---------------------14--------|-------------|------------------12------|
|-------------------------------|-------------|--------------------------|
|
|  S S  S S  S S  S S +Q    Q     H    Q.   E    E S S +S  S S S  E E Q
|--5----5----5----4-2-(2)-------|-------------|--9---7-(7)---5----4-2----|
|-------------------------------|-5----7------|-----------------------5--|
|-------------------------------|-------------|--------------------------|
|-------------------------------|-------------|--------------------------|
|-------------------------------|-------------|--------------------------|
|-------------------------------|-------------|--------------------------|


  H              H
|-------------------------------|
|-9--------------7--------------|
|-9--------------8--------------|
|-9--------------9--------------|
|-------------------------------|
|-------------------------------|
|
| E S S S S S S +E  S S S S S S
|---4---4---5-7-(7)-5---4---2---|
|-----------------------------5-|
|-------------------------------|
|-------------------------------|
|-------------------------------|
|-------------------------------|
|
| Gtr III
| W
|-------------------------------|
|-------------------------------|
|-------------------------------|
|-------------------------------|
|-------------------------------|
|-------------------------------|


   H               H                 H         H
|--------------------------------|---------------------|
|--9---------------7-------------|---9---------7-------|
|--9---------------8-------------|---9---------8-------|
|-11---------------9-------------|---9---------9-------|
|--------------------------------|---------------------|
|--------------------------------|---------------------|
|
| +E  S S S S S S +E  E  Q           Q.     E +Q   Q
|--------------------------------|---------------------|
|-(5)-4---5---7-5-(5)-4----------|---5------7-(7)------|
|--------------------------------|---------------------|
|--------------------------------|---------------------|
|--------------------------------|---------------------|
|--------------------------------|---------------------|
|
|  H               Q     S  S  E    +E  E Q    H
|-----------------------19-24----|---------------------|
|-----------------------------24-|-(24)----------------|
|--------------------------------|---------------------|
|--------------------------------|---------------------|
|--------------------------------|---------------------|
|--------------------------------|---------------------|


   H                H        H              H
|--------------------------|-------------------------------|
|--9-----------------------|-9--------------7--------------|
|--9----------------9------|-9--------------8--------------|
|-11---------------11------|-9--------------9--------------|
|------------------12------|-------------------------------|
|--------------------------|-------------------------------|
|
|  E S S +S  S S S  E E Q    E S S S S S S +E  S S S S S S
|--9---7-(7)---5----4-2----|---4---4---5-7-(7)-5---4---2---|
|-----------------------5--|-----------------------------5-|
|--------------------------|-------------------------------|
|--------------------------|-------------------------------|
|--------------------------|-------------------------------|
|--------------------------|-------------------------------|
|
|  W                         W
|--------------------------|-------------------------------|
|--------------------------|-------------------------------|
|--------------------------|-------------------------------|
|--------------------------|-------------------------------|
|--------------------------|-------------------------------|
|--------------------------|-------------------------------|


   H           Q.          E
|----------------------------|
|--9-----------7-------------|
|--9-----------8-------------|
|-11-----------9-------------|
|----------------------------|
|----------------------------|
|
| +E  E E S S +E  E +S  S  E
|----------------------------|
|-(5)-4-5-7-5-(5)-4-(4)------|
|----------------------------|
|----------------------------|
|----------------------------|
|----------------------------|
|
|  H           Q     S  S  E
|----------------------------|
|----------------------------|
|----------------------------|
|-------------------------21-|
|----------------------------|
|-------------------24-------|


   H           +Q        +S  S E
|----------------------------------|
|--5-----------(5)-------(5)-------|
|--6-----------(6)-------(6)-------|
|--7-----------(7)-------(7)-------|
|----------------------------------|
|----------------------------------|
|
|  E E S S S S +S  S S S  E    S S
|--9-9-7---7-5-(5)---5----4----4---|
|----------------------------------|
|----------------------------------|
|----------------------------------|
|----------------------------------|
|----------------------------------|
|
|  W
|----------------------------------|
|----------------------------------|
|-21-------------------------------|
|----------------------------------|
|----------------------------------|
|----------------------------------|


  W                      H           +Q      +S  S E
|---------------------|------------------------------|
|-7-------------------|--5-----------(5)-----(5)-----|
|-8-------------------|--6-----------(6)-----(6)-----|
|-9-------------------|--7-----------(7)-----(7)-----|
|---------------------|------------------------------|
|---------------------|------------------------------|
|
| E S S +Q   E E E  E    E E S S S S +S  S E  E    E
|-4---2-(2)-----------|--9-9-7---7-5-(5)---5--4----2-|
|----------------2--5-|------------------------------|
|--------------4------|------------------------------|
|---------------------|------------------------------|
|---------------------|------------------------------|
|---------------------|------------------------------|
|
| H          Q   E  E    W
|------------------19-|-24---------------------------|
|---------------------|------------------------------|
|---------------------|------------------------------|
|---------------------|------------------------------|
|---------------------|------------------------------|
|---------------------|------------------------------|


    Q.   E  +E  E E E    H     H
|---------------------|-------------|
|---7----7--(7)-7-7-7-|--9-----7----|
|---8----8--(8)-8-8-8-|--9-----8----|
|---9----9--(9)-9-9-9-|--9-----9----|
|---------------------|-------------|
|---------------------|-------------|
|
|   H       +E  E Q      W
|---7-------(7)-------|-------------|
|---------------------|-------------|
|---------------------|-------------|
|---------------------|-------------|
|---------------------|-------------|
|---------------------|-------------|
|
|  +H       +Q    Q      H     H
|-(24)-----(24)-------|-------------|
|---------------------|-------19----|
|---------------------|-21----------|
|---------------------|-------------|
|---------------------|-------------|
|---------------------|-------------|


   H                H          H              H
|--------------------------|----------------------------|
|--9-----------------------|---9--------------7---------|
|--9----------------9------|---9--------------8---------|
|-11---------------11------|---9--------------9---------|
|------------------12------|----------------------------|
|--------------------------|----------------------------|
|
|  W                           W
|--------------------------|----------------------------|
|--------------------------|----------------------------|
|--------------------------|----------------------------|
|--------------------------|----------------------------|
|--------------------------|----------------------------|
|--------------------------|----------------------------|
|
|  E.  S  +S  S  E  Q   Q     +E   E  +E   E  E  E  Q
|--------------------------|--------------------24------|
|-21--22-(22)---24-21------|------21-(21)-22-24----24---|
|----------------------21--|-(21)-----------------------|
|--------------------------|----------------------------|
|--------------------------|----------------------------|
|--------------------------|----------------------------|


   H                       H
|-------------------------------------------------|
|--9-----------------------7----------------------|
|--9-----------------------8----------------------|
|-11-----------------------9----------------------|
|-------------------------------------------------|
|-------------------------------------------------|
|
| Gtr III
|  S  S  S  S  S  S  S  S  S  S  S  S  S  S  S  S
|-------------------------------------------------|
|-22-21-22-21-------------------------------------|
|-------------21----------------------------------|
|----------------21-19-18-19-18-19-18-------------|
|-------------------------------------19----------|
|----------------------------------------19-17-19-|


   H     H       H              H
|-------------|----------------------|
|--9-----7----|--9-------------------|
|--9-----8----|--9--------------9----|
|--9-----9----|-11-------------11----|
|-------------|----------------12----|
|-------------|----------------------|
|
|  H     H       E.  S  +E   E  H
|-------------|----------------------|
|-------------|----------------------|
|-------------|----------------21----|
|-------------|-------------21-------|
|-19----21----|-23--24-(24)----------|
|-------------|----------------------|


    H              H             H            H
|-----------------------------|---------------------|
|---9--------------7----------|--9------------7-----|
|---9--------------8----------|--9------------8-----|
|---9--------------9----------|-11------------9-----|
|-----------------------------|---------------------|
|-----------------------------|---------------------|
|
| Gtr II
|   W                            W
|-----------------------------|---------------------|
|-----------------------------|---------------------|
|-----------------------------|---------------------|
|-----------------------------|---------------------|
|-----------------------------|---------------------|
|-----------------------------|---------------------|
|
| Gtr III
|  +E   E  +E   E  E  E  E  E    E  E  E  E  +H
|-----------------------------|---------------------|
|------21-(21)-22-24-22-21----|----------17-(17)----|
|-(21)---------------------21-|---------------------|
|-----------------------------|-21-19-18------------|
|-----------------------------|---------------------|
|-----------------------------|---------------------|


    E  E   E   E   E   E Q
|-------------------------------|
|---9------9-------7-----7------|
|---9------9-------8-----8------|
|---9--9---9---9---9---9-9------|
|-------------------------------|
|-------------------------------|
|
|   E  S S S S S S S S E E S S
|-------------------------------|
|------5-5-5---7---7------------|
|----------------------8-6-4----|
|-------------------------------|
|-------------------------------|
|-------------------------------|
|
|  +W
|-------------------------------|
|-(17)--------------------------|
|-------------------------------|
|-------------------------------|
|-------------------------------|
|-------------------------------|


    E     E    E    E    E  E E E   E E   E   E   E   E   E E
|---------------------------------|------------------------------|
|---9----------9--------------7---|-9-----9-------7-------7------|
|---9----------9--------11----8---|-9-----9-------8-------8------|
|--11----11---11---11---13--9-9-9-|-9-9---9---9---9---9---9-9----|
|-----------------------14--------|------------------------------|
|---------------------------------|------------------------------|
|
|   S  S  S S  S S  S S +Q    Q     E S S S S S S S S S S E S S
|---5-----5----5----4-2-(2)-------|------------------------------|
|---------------------------------|---5-5-5---7---7--------------|
|---------------------------------|-------------------8---6-4----|
|---------------------------------|------------------------------|
|---------------------------------|------------------------------|
|---------------------------------|------------------------------|
|
|  +Q.              E    H          W
|---------------------------------|------------------------------|
|-(17)----------------------------|------------------------------|
|---------------------------------|------------------------------|
|---------------------------------|------------------------------|
|---------------------------------|------------------------------|
|---------------------------------|------------------------------|


   E    E    E    E    E  E E   E     E   E   E   E   E   E   E   E
|-----------------------------------|----------------------------------|
|--9---------9--------------7-------|-9-------9-------7-------7--------|
|--9---------9--------11----8-------|-9-------9-------8-------8--------|
|-11---11---11---11---13--9-9---9---|-9---9---9---9---9---9---9---9----|
|---------------------14------------|----------------------------------|
|-----------------------------------|----------------------------------|
|
|  S S  S S  S S  S S +E  E Q         E   S S S S S S S S S S E   S S
|--5----5----5----4-2-(2)-----------|----------------------------------|
|-----------------------------------|-----5-5-5---7---7----------------|
|-----------------------------------|---------------------8---6---4----|
|-----------------------------------|----------------------------------|
|-----------------------------------|----------------------------------|
|-----------------------------------|----------------------------------|
|
|  H                   Q    S S S S   S S S S S S E   S S S S S S E
|-----------------------------------|----------------------------------|
|-----------------------------------|----------------------------------|
|---------------------------------4-|---4---4---4-----------4---4------|
|---------------------------2---2---|-2---2-----------2---2------------|
|-----------------------------------|----------------------------------|
|-----------------------------------|----------------------------------|


   E    E    E    E    E    E   E   E     E   E   E   E   E   E   E   E
|---------------------------------------|---------------------------------|
|--9---------9------------------7-------|-9-------9-------7-------7-------|
|--9---------9--------11--------8-------|-9-------9-------8-------8-------|
|-11---11---11---11---13----9---9---9---|-9---9---9---9---9---9---9---9---|
|---------------------14----------------|---------------------------------|
|---------------------------------------|---------------------------------|
|
|  S S  S S  S S  S S +Q        Q         E   S S S S S S S S S S S S S S
|--5----5----5----4-2-(2)---------------|---------------------------------|
|---------------------------------------|-----5-5-5---7---7---------------|
|---------------------------------------|---------------------8---6---4---|
|---------------------------------------|---------------------------------|
|---------------------------------------|---------------------------------|
|---------------------------------------|---------------------------------|
|
|  S S  S S  S S  S S  S  S S S S S S S   S S S S S S S S E   S S S S S S
|---------------------------------------|---------------------------------|
|---------------------------------------|---------------------------------|
|---------4----4--------------4---4---4-|-------4---4---4-------4---4---4-|
|--2----2---------2----2----2---2---2---|-2---2---------------2-------2---|
|---------------------------------------|---------------------------------|
|---------------------------------------|---------------------------------|


   E    E    E    E    E    E   E   E
|-------------------------------------|
|--9---------9------------------7-----|
|--9---------9--------11--------8-----|
|-11---11---11---11---13----9---9---9-|
|---------------------14--------------|
|-------------------------------------|
|
|  S S  S S  S S  S S +Q        Q
|--5----5----5----4-2-(2)-------------|
|-------------------------------------|
|-------------------------------------|
|-------------------------------------|
|-------------------------------------|
|-------------------------------------|
|
|  S S  S S  S S  S S  S  S S S S S E
|-------------------------------------|
|-----------------------------5-------|
|----4----4----4----4-----4-----------|
|--2----2----2----2----2----2---------|
|-------------------------------7-----|
|-------------------------------------|


   H            +H              H           +Q   +S  S  E
|---------------------------|-------------------------------|
|---------------------------|---7-----------(7)--(7)--------|
|--9------------(9)---------|---8-----------(8)--(8)--------|
|-11-----------(11)---------|---9-----------(9)--(9)--------|
|-12-----------(12)---------|-------------------------------|
|---------------------------|-------------------------------|
|
|  E S S +E. S  +E. S +E. S    +Q..       S +Q   +S  E    S
|------4-(4)-2--(2)---------|-------------------------------|
|-------------------5-(5)-4-|--(4)--------5-(5)--(5)-4------|
|---------------------------|-------------------------------|
|---------------------------|-------------------------------|
|---------------------------|-------------------------------|
|---------------------------|-------------------------------|
|
|  W                           +S   S E Q    Q    E     E
|-12------------------------|-(12)---------------12----19---|
|---------------------------|-------------------------------|
|---------------------------|-------------------------------|
|---------------------------|-------------------------------|
|---------------------------|-------------------------------|
|---------------------------|-------------------------------|


   H           +H              H     +Q.   E
|--------------------------|-----------------|
|--9-----------(9)---------|---7-----(7)-----|
|--9-----------(9)---------|---8-----(8)-----|
|-11----------(11)---------|---9-----(9)-----|
|--------------------------|-----------------|
|--------------------------|-----------------|
|
|  E S S +Q    +E. S +E. S    +H      H
|------------------4-(4)-2-|--(2)------------|
|------2-(2)---(2)---------|-----------------|
|--------------------------|-----------------|
|--------------------------|-----------------|
|--------------------------|-----------------|
|--------------------------|-----------------|
|
|  W                          +W
|-24-----------------------|-(24)------------|
|--------------------------|-----------------|
|--------------------------|-----------------|
|--------------------------|-----------------|
|--------------------------|-----------------|
|--------------------------|-----------------|


    W                                H       +Q.       E
|---------------------------------|----------------------|
|---5-----------------------------|--7-------(7)---------|
|---6-----------------------------|--8-------(8)---------|
|---7-----------------------------|--9-------(9)---------|
|---------------------------------|----------------------|
|---------------------------------|----------------------|
|
|   E  S S +E. S  +E.     S +E. S   +Q..   S +E. S +Q
|--------4-(4)-2--(2)-------------|----------------------|
|-------------------------5-(5)-4-|-(4)----5-(5)-4-(4)---|
|---------------------------------|----------------------|
|---------------------------------|----------------------|
|---------------------------------|----------------------|
|---------------------------------|----------------------|
|
|  +H             +S  S E    Q       W
|-(24)-----------(24)-------------|----------------------|
|---------------------------------|----------------------|
|---------------------------------|----------------------|
|---------------------------------|----------------------|
|---------------------------------|----------------------|
|---------------------------------|----------------------|


   H          +Q     +S  S E      Q   E E  E    E   E E
|------------------------------|------------------------|
|--9----------(9)----(9)-------|--7---7-7--7----7---7---|
|--9----------(9)----(9)-------|--8---8-8--8----8---8---|
|-11---------(11)---(11)-------|--9---9-9--9----9---9---|
|------------------------------|------------------------|
|------------------------------|------------------------|
|
| +E. S +Q    +E. S  +E.     S   +H       +S  S E   Q
|-----------------4--(4)-----2-|-(2)------(2)-----------|
|-(4)-2-(2)---(2)--------------|------------------------|
|------------------------------|------------------------|
|------------------------------|------------------------|
|------------------------------|------------------------|
|------------------------------|------------------------|
|
|  W                              H        E    S S Q
|------------------------------|------------------------|
|------------------------------|------------------------|
|------------------------------|------------------------|
|------------------------------|------------------------|
|------------------------------|------------------------|
|------------------------------|----------------0---0---|


  H    H         H                H
|-------------|----------------------------|
|-9----7------|--9-------------------------|
|-9----8------|--9----------------9--------|
|-9----9------|-11---------------11--------|
|-------------|------------------12--------|
|-------------|----------------------------|
|
| H    Q.   E    E S S +S  S S S  E E Q
|-------------|--9---7-(7)---5----4-2------|
|-5----7------|-----------------------5----|
|-------------|----------------------------|
|-------------|----------------------------|
|-------------|----------------------------|
|-------------|----------------------------|
|
| W              W
|-------------|----------------------------|
|-------------|----------------------------|
|-------------|----------------------------|
|-------------|----------------------------|
|-------------|----------------------------|
|-------------|----------------------------|


  H              H
|-------------------------------|
|-9--------------7--------------|
|-9--------------8--------------|
|-9--------------9--------------|
|-------------------------------|
|-------------------------------|
|
| E S S S S S S +E  S S S S S S
|---4---4---5-7-(7)-5---4---2---|
|-----------------------------5-|
|-------------------------------|
|-------------------------------|
|-------------------------------|
|-------------------------------|
|
| W
|-------------------------------|
|-------------------------------|
|-------------------------------|
|-------------------------------|
|-------------------------------|
|-------------------------------|


   H               Q.                 E     H       H
|---------------------------------------|-------------------|
|--9---------------7--------------------|---9-------7-------|
|--9---------------8--------------------|---9-------8-------|
|-11---------------9------------------9-|---9-------9-------|
|---------------------------------------|-------------------|
|---------------------------------------|-------------------|
|
| +E  S S S S S S +E      E     Q           Q.   E +Q   Q
|---------------------------------------|-------------------|
|-(5)-4---5---7-5-(5)-----4-------------|---5----7-(7)------|
|---------------------------------------|-------------------|
|---------------------------------------|-------------------|
|---------------------------------------|-------------------|
|---------------------------------------|-------------------|
|
|  H               S   S  S  S  S  S  E    +W
|------------------------19----19-24----|-------------------|
|---------------------------17-------24-|-(24)--------------|
|---------------------21----------------|-------------------|
|---------------------------------------|-------------------|
|---------------------------------------|-------------------|
|---------------------------------------|-------------------|


   H                H        H              H
|--------------------------|-------------------------------|
|--9-----------------------|-9--------------7--------------|
|--9----------------9------|-9--------------8--------------|
|-11---------------11------|-9--------------9--------------|
|------------------12------|-------------------------------|
|--------------------------|-------------------------------|
|
|  E S S +S  S S S  E E Q    E S S S S S S +E  S S S S S S
|--9---7-(7)---5----4-2----|---4---4---5-7-(7)-5---4---2---|
|-----------------------5--|-----------------------------5-|
|--------------------------|-------------------------------|
|--------------------------|-------------------------------|
|--------------------------|-------------------------------|
|--------------------------|-------------------------------|
|
|  W                         W
|--------------------------|-------------------------------|
|--------------------------|-------------------------------|
|--------------------------|-------------------------------|
|--------------------------|-------------------------------|
|--------------------------|-------------------------------|
|--------------------------|-------------------------------|


   H           Q.             E
|--------------------------------|
|--9-----------7-----------------|
|--9-----------8-----------------|
|-11-----------9--------------9--|
|--------------------------------|
|--------------------------------|
|
| +E  E E S S +E  E    +S  S  E
|--------------------------------|
|-(5)-4-5-7-5-(5)-4----(4)-------|
|--------------------------------|
|--------------------------------|
|--------------------------------|
|--------------------------------|
|
|  H           E  S  S  E     E
|----------------------19----24--|
|--------------------------------|
|-------------------21-----------|
|--------------------------------|
|--------------------------------|
|--------------------------------|


    H             +H
|---------------------------------|
|---------------------------------|
|---9-------------(9)-------------|
|--11------------(11)-------------|
|--12------------(12)-------------|
|---------------------------------|
|
|   E  E S S S S  +S  S S S E S S
|---9--9-7---7-5--(5)---5---4-4---|
|---------------------------------|
|---------------------------------|
|---------------------------------|
|---------------------------------|
|---------------------------------|
|
|  +W
|-(24)----------------------------|
|---------------------------------|
|---------------------------------|
|---------------------------------|
|---------------------------------|
|---------------------------------|


    H            +Q      +S  S E   H           +Q      +S  S E
|--------------------------------|------------------------------|
|---7------------(7)-----(7)-----|-5-----------(5)-----(5)------|
|---8------------(8)-----(8)-----|-6-----------(6)-----(6)------|
|---9------------(9)-----(9)-----|-7-----------(7)-----(7)------|
|--------------------------------|------------------------------|
|--------------------------------|------------------------------|
|
|   E  S S +Q     E    E  E    E   E E S S S S +S  S E  E    E
|---4----2-(2)-------------------|-9-9-7---7-5-(5)---5--4----2--|
|-------------------------2----5-|------------------------------|
|----------------------4---------|------------------------------|
|--------------------------------|------------------------------|
|--------------------------------|------------------------------|
|--------------------------------|------------------------------|
|
|  +H            +S  S E  Q        W
|-(24)----------(24)-------------|------------------------------|
|--------------------------------|------------------------------|
|--------------------------------|------------------------------|
|--------------------------------|------------------------------|
|--------------------------------|------------------------------|
|--------------------------------|------------------------------|


  Q.    E  E  E E E   H    H         H                H
|-------------------|-------------|--------------------------|
|-7--------7--7-7---|-9----7------|--9-----------------------|
|-8----11--8--8-8---|-9----8------|--9----------------9------|
|-9-----9--9--9-9---|-9----9------|-11---------------11------|
|-------------------|-------------|------------------12------|
|-------------------|-------------|--------------------------|
|
| H       +E  E Q     H    Q.   E    E S S +S  S S S  E E Q
|-7-------(7)-------|-------------|--9---7-(7)---5----4-2----|
|-------------------|-5----7------|-----------------------5--|
|-------------------|-------------|--------------------------|
|-------------------|-------------|--------------------------|
|-------------------|-------------|--------------------------|
|-------------------|-------------|--------------------------|


  H              H                 H               Q.     E   H       H
|-------------------------------|---------------------------|----------------|
|-9--------------7--------------|--9---------------7--------|-9-------7------|
|-9--------------8--------------|--9---------------8--------|-9-------8------|
|-9--------------9--------------|-11---------------9------9-|-9-------9------|
|-------------------------------|---------------------------|----------------|
|-------------------------------|---------------------------|----------------|
|
| E S S S S S S +E  S S S S S S   +E  S S S S S S +E  E Q     Q.   E +Q   Q
|---4---4---5-7-(7)-5---4---2---|---------------------------|----------------|
|-----------------------------5-|-(5)-4---5---7-5-(5)-4-----|-5----7-(7)-----|
|-------------------------------|---------------------------|----------------|
|-------------------------------|---------------------------|----------------|
|-------------------------------|---------------------------|----------------|
|-------------------------------|---------------------------|----------------|


   H                H        H              H
|--------------------------|-------------------------------|
|--9-----------------------|-9--------------7--------------|
|--9----------------9------|-9--------------8--------------|
|-11---------------11------|-9--------------9--------------|
|------------------12------|-------------------------------|
|--------------------------|-------------------------------|
|
|  E S S +S  S S S  E E Q    E S S S S S S +E  S S S S S S
|--9---7-(7)---5----4-2----|---4---4---5-7-(7)-5---4---2---|
|-----------------------5--|-----------------------------5-|
|--------------------------|-------------------------------|
|--------------------------|-------------------------------|
|--------------------------|-------------------------------|
|--------------------------|-------------------------------|
|
| Gtr III
|  W                         W
|--------------------------|-------------------------------|
|--------------------------|-------------------------------|
|--------------------------|-------------------------------|
|--------------------------|-------------------------------|
|--------------------------|-------------------------------|
|--------------------------|-------------------------------|


   H           Q.         E
|------------------------------|
|--9-----------7---------------|
|--9-----------8---------------|
|-11-----------9---------------|
|------------------------------|
|------------------------------|
|
| +E  E E S S +E  E +S  S E
|------------------------------|
|-(5)-4-5-7-5-(5)-4-(4)--------|
|------------------------------|
|------------------------------|
|------------------------------|
|------------------------------|
|
|  H           Q     S  S S S
|-------------------------7----|
|-----------------------5---5--|
|-----------------------4------|
|--------------------2---------|
|------------------------------|
|------------------------------|


   H     H       H              H
|-------------|------------------------|
|--9-----7----|--9---------------------|
|--9-----8----|--9--------------9------|
|--9-----9----|-11-------------11------|
|-------------|----------------12------|
|-------------|------------------------|
|
| Gtr III
|  H     H       E.  S  +E   E  Q   Q
|-12----14----|-16--17-(17)-19---------|
|-------------|----------------21------|
|-------------|--------------------21--|
|-------------|------------------------|
|-------------|------------------------|
|-------------|------------------------|


    H              H             H           Q   +S  S E
|-----------------------------|---------------------------|
|---9--------------7----------|--9-----------7---(7)------|
|---9--------------8----------|--9-----------8---(8)------|
|---9--------------9----------|-11-----------9---(9)---9--|
|-----------------------------|---------------------------|
|-----------------------------|---------------------------|
|
|  +E   E  +E   E  E  E  E  E    E  E  E  E  E E  E    E
|-----------------------------|-------------------7-------|
|------21-(21)-22-24-22-21-19-|-17---------------------5--|
|-(21)------------------------|----16-14-13-11-9----------|
|-----------------------------|---------------------------|
|-----------------------------|---------------------------|
|-----------------------------|---------------------------|


   H     H           H                     H
|-----------------|------------------------------|
|--9-----7--------|--9---------------------------|
|--9-----8--------|--9---------------------9-----|
|--9-----9--------|-11--------------------11-----|
|-----------------|-----------------------12-----|
|-----------------|------------------------------|
|
|  H     Q..    S    S  S  S  S  S  S  E  +H
|-12----14-----12-|-16----17----19----24-(24)----|
|-----------------|----17----17----17------------|
|-----------------|------------------------------|
|-----------------|------------------------------|
|-----------------|------------------------------|
|-----------------|------------------------------|


    H              Q.          E    H           Q.        E
|--------------------------------|--------------------------|
|---9--------------7-------------|--9-----------7-----------|
|---9--------------8-------------|--9-----------8-----------|
|---9--------------9-------------|-11-----------9-----------|
|--------------------------------|--------------------------|
|--------------------------------|--------------------------|
|
|  +E   E  +E   E  E   E  S S  E    E  E  E  E  E   E  E  E
|-(24)---------------------------|--------------------------|
|------21-(21)-22-24--22-21---21-|--------------------------|
|-----------------------------23-|-21-----------------------|
|--------------------------------|----21-19-18-16--14-------|
|--------------------------------|--------------------14-12-|
|--------------------------------|--------------------------|


   W           E E E E H
|-----------|---------------*|
|-----------|---------------*|
|--9--------|--9-9-9-9------*|
|--9--------|--9-9-9-9------*|
|-----------|---------------*|
|--0--------|--0-0-0-0------*|
|
|  W           E E E E H
|-----------|---------------*|
|-----------|---------------*|
|-----------|---------------*|
|-----------|---------------*|
|-11--------|----2----------*|
|-----------|-12---2-0------*|


Duration Legend
---------------
W - whole; H - half; Q - quarter; E - 8th; S - 16th; T - 32nd; X - 64th; a - acciaccatura
+ - note tied to previous; . - note dotted; .. - note double dotted
Uncapitalized letters represent notes that are staccato (1/2 duration)
Irregular groupings are notated above the duration line
Duration letters will always appear directly above the note/fret number it represents the
duration for.  Duration letters with no fret number below them represent rests.  Multi-
bar rests are notated in the form Wxn, where n is the number of bars to rest for.  Low
melody durations appear below the staff

Tablature Legend
----------------
 h   - hammer-on
 p   - pull-off
 b   - bend
 pb  - pre-bend
 r   - bend release (if no number after the r, then release immediately)
 /\  - slide into or out of (from/to "nowhere")
 s   - legato slide
 S   - shift slide
  - natural harmonic
[n]  - artificial harmonic
n(n) - tapped harmonic
 ~   - vibrato
 tr  - trill
 T   - tap
 TP  - trem. picking
 PM  - palm muting
\n/  - tremolo bar dip; n = amount to dip
 \n  - tremolo bar down
 n/  - tremolo bar up
/n\  - tremolo bar inverted dip
 =   - hold bend; also acts as connecting device for hammers/pulls
 <>  - volume swell (louder/softer)
 x   - on rhythm slash represents muted slash
 o   - on rhythm slash represents single note slash

Misc Legend
-----------
 |  - bar
||  - double bar
||o - repeat start
o|| - repeat end
*|  - double bar (ending)
 :  - bar (freetime)
 $  - Segno
 &  - Coda
Tempo markers -  = BPM(8/16=s8/s16), where s8 = swing 8ths, s16 = swing 16ths





Comments


Popular Gianna Nannini tabs & chords
Bello E Impossibile Bass Tabs
Aria Chords
Fotoromanza Chords
Suicidio Damore Chords
Un Estate Italiana Chords
Bello E Impossibile Ukulele
Meravigliosa Creatura Ukulele
Sei Nell Anima Ukulele
Sei Nellanima Ukulele
Un Estate Italiana Ukulele


Song lyrics



↑ Back to top | Tablatures and chords are parodies/interpretations of the original songs. You may use it for private study, scholarship, research or language learning purposes only
© 2014 AZChords.com Contact us | Privacy policy | DMCA | Add/correct tabs | Request tabs | Top 50 tabs