>
 >
Bello E Impossibile

Bello E Impossibile Bass Tabs

Gianna Nannini - Bello E Impossibile chords, tabs, tablatures, lyrics

Guitar lessons | Add/correct | Request | Top 50 tabs Artists:  A B C D E F G H I J K L M N O P Q R S T U V W X Y Z 0-9

Bello E Impossibile Bass Tabs – Gianna Nannini

CD, Sheet music, Poster

Do you like Bello E Impossibile? Share with your friends now
Bass TabsChordsTabsUkulele
-------------------------------------------------------------------------------
-------------------------------------------------------------------------------

Tuning: E A D G 


Gtr I (E A D G) - 'Bass'

  Q=113
 4/4
  Gtr I
  W          Q.   E Q.   E   Q.   E H      Q.   E Q  +S  S E
|----------|---------------|-------------|-------------------|
|----------|-2----2--------|-------------|-------------------|
|----------|--------2----2-|-4----4------|-7----7------------|
|----------|---------------|--------5----|--------7--(7)---7-|


  Q.   E Q  Q    Q.   E H      Q.   E H      Q.   E Q.   E
|--------------|-------------|-------------|---------------|
|--------------|-------------|-------------|---------------|
|-----------6--|-7----7------|--------0----|-7----7--------|
|-9----9-7-----|--------7----|-9----9------|--------7----7-|


  Q.   E E E S S E   Q.   E Q  Q    Q.   E Q  E E   Q  E S S Q  Q
|------------------|--------------|---------------|----------------|
|------------------|--------------|---------------|----------------|
|------------------|-----------0--|-2----2-2--4-2-|-------------0--|
|-9----9-7-7-7---7-|-2----2-2-----|---------------|-2----2---2-----|


  Q.   E E E E E   Q.   E H      Q.   E Q  Q    Q  E E H
|----------------|-------------|--------------|-------------|
|----------------|-2----2------|--------------|-------------|
|-2----2-2-2-2---|--------2----|-4----4-------|-7----7------|
|----------------|-------------|--------5--7--|--------7----|


  Q.   E Q  Q    Q.   E H      Q.   E Q  Q    Q.   E H
|--------------|-------------|--------------|-------------|
|--------------|-------------|--------------|-------------|
|-----------9--|-7----7------|--------0-----|-7----7------|
|-9----9-7-----|--------7----|-9----9----7--|--------7----|


  Q.   E E E S S E   Q.   E Q  E E   Q  E E Q  E E   E E E E Q  E E
|------------------|---------------|---------------|-----------------|
|------------------|---------------|---------------|-----------------|
|------------------|-7----7--------|---------------|-7-----7---------|
|-9----9-7-7-7---7-|--------7----7-|-9----9-7----7-|---------7----7--|


  Q  E E E S S Q    Q  E E Q  E E   Q.   E Q  E E   Q  E E Q  E E
|-----------------|---------------|---------------|----------------|
|-----------------|---------------|---------------|----------------|
|-----------------|-7----7--------|---------------|-7----7---------|
|-9----9-7-7---7--|--------7----7-|-9----9-7----7-|--------7----7--|


  Q  E E E S S Q    Q.   E Q  Q    Q  +S  S E H      Q.   E Q  Q
|-----------------|--------------|-----------------|--------------|
|-----------------|--------------|-----------------|-----------6--|
|-----------------|-----------0--|-2--(2)---2-2----|-4----4-4-----|
|-9----9-7-7---7--|-2----2-2-----|-----------------|--------------|


  Q  E E Q  E E   Q.   E Q  Q    Q.   S S H      Q  +S  S E H
|---------------|--------------|---------------|-----------------|
|---------------|--------------|---------------|-----------------|
|---------------|-----------0--|-2----2---2----|-4--(4)---4-4----|
|-7----7-7--9-7-|-2----2-2-----|---------------|-----------------|


  E E E E E E E E   Q  +S  S E Q.   E   Q.   E Q  Q    Q.   E Q.   E
|-----------------|-------------------|--------------|----------------|
|-----------------|-2--(2)---2--------|-----------4--|-2----2---------|
|-2-2-2-2-2-2-2---|------------2----2-|-4----4-2-----|--------2----2--|
|-----------------|-------------------|--------------|----------------|


  Q  E E E E E E   Q.   S S Q  E E   Q  E E Q.   E   Q.   E Q  E E
|------------4---|-----------------|---------------|----------------|
|----------------|-2----2----------|---------------|-2----2---------|
|-4----4-2-2---2-|----------2----2-|-4----4-2----2-|--------2----2--|
|----------------|-----------------|---------------|----------------|


  Q  E E Q  E E   Q.   E Q  E E   Q.   E Q  Q    Q.   E Q.   E
|---------------|---------------|--------------|---------------|
|---------------|-2----2--------|--------------|---------------|
|-4----4-2----2-|--------2----2-|-4----4-------|-7----7--------|
|---------------|---------------|--------5--7--|--------7----7-|


  Q.   E E E Q    Q  E E Q.   E   Q  E E Q  Q    Q  E E Q.   E
|---------------|---------------|--------------|---------------|
|---------------|---------------|--------------|---------------|
|---------------|-7----7--------|--------0-----|-7----7--------|
|-9----9-7-7-7--|--------7----7-|-9----9----7--|--------7----7-|


  Q.   E E E Q    Q.   E Q  Q    Q.   E Q  E E   Q.   E E E Q
|---------------|--------------|---------------|---------------|
|---------------|--------------|---------------|---------------|
|---------------|-----------0--|-2----2-2--4-2-|------------0--|
|-9----9-7-7-7--|-2----2-2-----|---------------|-2----2-2------|


  E E S S E E E S S E   Q  E E Q  E E   Q.   E Q  Q    H    Q  Q
|---------------------|---------------|--------------|------------|
|---------------------|-2----2--------|--------------|------------|
|-2-2-2---2-2-2-2-----|--------2----2-|-4----4-------|-7----6-----|
|---------------------|---------------|--------5--7--|---------7--|


  Q.   E Q  E E   Q.   E Q  E E   Q.   E Q  Q    Q.   E Q  Q
|---------------|---------------|--------------|--------------|
|-----------9---|---------------|--------------|--------------|
|---------------|-7----7--------|--------0-----|-7----7-6-----|
|-9----9-7----7-|--------7----7-|-9----9----7--|-----------7--|


  Q  +S  S E E E Q    Q  E E Q  E E   Q  E E E E Q    E E E E E E E E
|-------------------|---------------|---------------|------------------|
|-------------------|---------------|---------------|------------------|
|-------------------|-7----7--------|---------------|-7-----7----------|
|-9--(9)---9-7-7-7--|--------7----7-|-9----9-7-7-7--|---------7-----7--|


  Q  E E E E E E   E E E E E E E E   Q  E E E E E E   Q  E E Q  E E
|----------------|-----------------|----------------|---------------|
|----------------|-----------------|----------------|---------------|
|------------9---|-7-----7---------|----------------|-7----7--------|
|-9----9-7-7---7-|---------7-----7-|-9----9-7-----7-|--------7----7-|


  Q  E E E E Q    Q.   E Q  Q    Q.   E H      Q.   E H
|---------------|--------------|-------------|-------------|
|---------------|--------------|-------------|-------------|
|---------------|-----------0--|-2----2-2----|-4----4-4----|
|-9----9-7-7-7--|-2----2-2-----|-------------|-------------|


  Q.   E Q  E E   Q  +S  S E Q  Q    Q  E S S H      Q.   E H
|---------------|------------------|---------------|-------------|
|-----------4---|------------------|---------------|-------------|
|-2----2-2----2-|---------------0--|-2----2---2----|-4----4-4----|
|---------------|-2--(2)---2-2-----|---------------|-------------|


  E E E E E E E E   Q.   E Q.   E   Q.   E Q  Q    Q.   E Q  E E
|-----------------|---------------|--------------|---------------|
|-----------------|-2----2--------|--------------|---------------|
|-2-2-2-2-2-2-2---|--------2----2-|-4----4-------|-7----7--------|
|-----------------|---------------|--------5--7--|--------7----7-|


  Q  E E E E E E   Q.   E Q.   E   Q  E E Q  Q    Q  +S  S E Q.   E
|----------------|---------------|--------------|--------------------|
|------------9---|---------------|--------------|--------------------|
|----------------|-7----7--------|--------0-----|-7--(7)---7---------|
|-9----9-7-7---7-|--------7----7-|-9----9----7--|------------7----7--|


  Q.   E E S S Q    Q.   S S Q  Q    Q.   S S Q  E E   Q.   E Q  Q
|-----------------|----------------|-----------------|---------------|
|-----------------|----------------|-----------------|---------------|
|-----------------|-------------0--|-2----2---2--4-2-|-----------0---|
|-9----9-7-7---7--|-2----2---2-----|-----------------|-2----2-2------|


  Q  E E S S E E E   Q.   E Q.   E   Q.   E Q  Q    Q.   E Q.   E
|------------------|---------------|--------------|----------------|
|------------------|-2----2--------|--------------|----------------|
|-2--2-2-2---2-2---|--------2----2-|-4----4-------|-7----7---------|
|------------------|---------------|--------5--7--|--------7----7--|


  Q   Q  E E Q    Q  E E Q.   E   Q.   E Q  Q    Q.   E Q  E E
|---------------|---------------|--------------|---------------|
|---------------|-2----2--------|--------------|---------------|
|----11--9------|--------2----2-|-4----4-------|-7----7--------|
|-9--------7-2--|---------------|--------5--7--|--------7----7-|


  Q  E E E E E E   Q  +S  S E H      Q.   E Q  Q    Q.   E H
|----------------|-----------------|--------------|-------------|
|--------------9-|-----------------|--------------|-------------|
|------------9---|-7--(7)---7------|--------0-----|-7----7------|
|-9----9-7-7-----|------------7----|-9----9----7--|--------7----|


  Q.   E E E E E   Q  E E H      Q.   E Q  Q    Q.   E Q.   E
|----------------|-------------|--------------|---------------|
|------------9---|-------------|--------------|---------------|
|----------------|-7----7------|--------0-----|-7----7--------|
|-9----9-7-7---7-|--------7----|-9----9----7--|--------7----7-|


  Q.   E E E +Q     Q.   E Q.   E   E E E E H
|-----------------|---------------|--------------*|
|-----------------|---------------|--------------*|
|-----------------|---------------|-7------------*|
|-9----9-7-7-(7)--|-0----0-0------|---7-2-0------*|


Duration Legend
---------------
W - whole; H - half; Q - quarter; E - 8th; S - 16th; T - 32nd; X - 64th; a - acciaccatura
+ - note tied to previous; . - note dotted; .. - note double dotted
Uncapitalized letters represent notes that are staccato (1/2 duration)
Irregular groupings are notated above the duration line
Duration letters will always appear directly above the note/fret number it represents the
duration for.  Duration letters with no fret number below them represent rests.  Multi-
bar rests are notated in the form Wxn, where n is the number of bars to rest for.  Low
melody durations appear below the staff

Tablature Legend
----------------
 h   - hammer-on
 p   - pull-off
 b   - bend
 pb  - pre-bend
 r   - bend release (if no number after the r, then release immediately)
 /\  - slide into or out of (from/to "nowhere")
 s   - legato slide
 S   - shift slide
  - natural harmonic
[n]  - artificial harmonic
n(n) - tapped harmonic
 ~   - vibrato
 tr  - trill
 T   - tap
 TP  - trem. picking
 PM  - palm muting
\n/  - tremolo bar dip; n = amount to dip
 \n  - tremolo bar down
 n/  - tremolo bar up
/n\  - tremolo bar inverted dip
 =   - hold bend; also acts as connecting device for hammers/pulls
 <>  - volume swell (louder/softer)
 x   - on rhythm slash represents muted slash
 o   - on rhythm slash represents single note slash

Misc Legend
-----------
 |  - bar
||  - double bar
||o - repeat start
o|| - repeat end
*|  - double bar (ending)
 :  - bar (freetime)
 $  - Segno
 &  - Coda
Tempo markers -  = BPM(8/16=s8/s16), where s8 = swing 8ths, s16 = swing 16ths





Comments


Popular Gianna Nannini tabs & chords
Un Estate Italiana Bass Tabs
Aria Chords
Bello E Impossibile Chords
Maledetto Ciao Chords
Meravigliosa Creatura Chords
Bello E Impossibile Tabs
Radio Baccano Tabs
Meravigliosa Creatura Ukulele
Sei Nell Anima Ukulele
Sei Nellanima Ukulele


Song lyrics



↑ Back to top | Tablatures and chords are parodies/interpretations of the original songs. You may use it for private study, scholarship, research or language learning purposes only
© 2014 AZChords.com Contact us | Privacy policy | DMCA | Add/correct tabs | Request tabs | Top 50 tabs