» » »

George Harrison, What Is Life Tabs (ver.1)

Artists:  A B C D E F G H I J K L M N O P Q R S T U V W X Y Z # 

What Is Life Tabs (ver.1)

George Harrison Tabs
Rating:
0/5 (0 votes)
What Is Life lessons Tabs too difficult? Try these video lessons and learn fast
                
What Is Life - intro
    Repeat
|-------------------------------------|------------------------------------|
|-------------------------------------|------------------------------------|
|-------------------------------------|------------------------------------|
|---2---1-----------------1-----------|------------------------------------|
|------------4---2----------------4---|---2----0-------0-----0--------2----|
|-------------------------------------|------------------------------------|

|-----------------------------------------|--------------------------|---------------------|
|-----------------------------------------|--------------------------|---------------------|
|-----------------------------------------|--------------------------|---------------------|
|-----------------------------------------|----0---------------------|---------------------|
|----2----0----------0----2----4-----2----|--------------4-----------|----2-----2-----2----|
|-----------------------------------------|--------------------------|---------------------|
Verse
|---------------------------------|-----------------------------------------|---------------------------------|------------------------------------|
|---------------------------------|-----------------------------------------|---------------------------------|------------------------------------|
|---------------------------------|-----------------------------------------|---------------------------------|------------------------------------|
|------2------2-------------------|---2----2--------------------------------|---------------------------------|------------------------------------|
|--------------------2--------2---|---------------4------2------------------|---2-------2---------------------|-----2--------2-----------2---3-----|
|---------------------------------|-----------------------------0------4----|------------------2---------2----|------------------2---4-------------|

|----------------------------------------|----------------------------------|------------------------|----------------------------|
|----------------------------------------|----------------------------------|------------------------|----------------------------|
|----------------------------------------|----------------------------------|------------------------|----------------------------|
|-------------------------------2----3---|---4--------4---------2---3---4---|---5------4------2------|-----0----------------------|
|------4------4-----------2--------------|----------------4-----------------|------------------------|--------------4--------2----|
|------------------4---------------------|----------------------------------|------------------------|----------------------------|
            

comments powered by Disqus
↑ Back to top | George Harrison Tabs for What Is Life. Lyrics for acoustic guitar and electric guitar. Tablatures and chords are parodies/interpretations of the original songs. You may use it for private study, scholarship, research or language learning purposes only