» » »

Faster Bass tabs (ver.1)

Artists:  A B C D E F G H I J K L M N O P Q R S T U V W X Y Z # 

Faster Bass tabs (ver.1)

George Harrison
Rating:
0/5 (0 votes)

Hard to play? Try these video lessons and learn fast.
                Verse


G|------------------------------------------------||
D|--0-00-00-00-00-00-00-00------------3-0---------||
A|--------------------------0-00-00-0----00-00----||
E|------------------------------------------------||
     Chose a...              Pushing ...

Verse

G|------------------------------------------------||
D|--0-00-00-00-00-00-00-00------------3-0---------||
A|--------------------------0-00-00-0----00-00----||
E|------------------------------------------------||
     Now...                  Pulled...

Bridge

G|--------------------------------------------------||
D|0-0-0---------------------------------------------||
A|------1-1-1-1-1-1-1-------------2-1---------------||
E|--------------------3-3-3-3-3-3-----3-3-3---------||
                  Intrigiued...
Chorus

G|-----------------------------------------------||
D|-------------------------------0-00------------||
A|--0-00---3-3-3---------3------------0--1-------||
E|----------------3-3-3-----5---------------3----||

G|-----------------------------------------------||
D|-------------------------------0-00------------||
A|--0-00---3-3-3---------3------------0--1-------||
E|----------------3-3-3-----5---------------3----||

G|-------------------------------------------------------------------||
D|--0-00-00-00-00-00-00-00-00-00-------------------------------------||
A|----------------------------------0-00-00-00-00-1-2-3-1-1-1-1-1-1-1||
E|-------------------------------------------------------------------||

  No one knows...

Verse

G|------------------------------------------------||
D|--0-00-00-00-00-00-00-00------------3-0---------||
A|--------------------------0-00-00-0----00-00----||
E|------------------------------------------------||

Verse
G|------------------------------------------------||
D|--0-00-00-00-00-00-00-00------------3-0---------||
A|--------------------------0-00-00-0----00-00----||
E|------------------------------------------------||

Bridge

G|--------------------------------------------------||
D|0-0-0---------------------------------------------||
A|------1-1-1-1-1-1-1-------------2-1---------------||
E|--------------------3-3-3-3-3-3-----3-3-3---------||
                  Intrigiued...

Chorus

G|-----------------------------------------------||
D|-------------------------------0-00------------||
A|--0-00---3-3-3---------3------------0--1-------||
E|----------------3-3-3-----5---------------3----||

G|-----------------------------------------------||
D|-------------------------------0-00------------||
A|--0-00---3-3-3---------3------------0--1-------||
E|----------------3-3-3-----5---------------3----||

G|-------------------------------------------------------------------||
D|--0-00-00-00-00-00-00-00-00-00-------------------------------------||
A|----------------------------------0-00-00-00-00-1-2-3-1-11-11-11---||
E|-------------------------------------------------------------------||

Bridge

G|--------------------------------------------------||
D|0-0-0---------------------------------------------||
A|------1-1-1-1-1-1-1-------------2-1---------------||
E|--------------------3-3-3-3-3-3-----3-3-3---------||
                  Intrigiued...

Chorus

G|-----------------------------------------------||
D|-------------------------------0-00------------||
A|--0-00---3-3-3---------3------------0--1-------||
E|----------------3-3-3-----5---------------3----||

G|-----------------------------------------------||
D|-------------------------------0-00------------||
A|--0-00---3-3-3---------3------------0--1-------||
E|----------------3-3-3-----5---------------3----||

G|-------------------------------------------------------------------||
D|--0-00-00-00-00-00-00-00-00-00-------------------------------------||
A|----------------------------------0-00-00-00-00-1-2-3-1-1-1-1-1-1-1||
E|-------------------------------------------------------------------||
            
Hard to play? Try these video lessons and learn fast. | Correct




comments powered by Disqus
↑ Back to top | Tablatures and chords are parodies/interpretations of the original songs. You may use it for private study, scholarship, research or language learning purposes only