» » »

George Harrison, Cosmic Empire Tabs (ver.1)

Artists:  A B C D E F G H I J K L M N O P Q R S T U V W X Y Z # 

Cosmic Empire Tabs (ver.1)

George Harrison Tabs
 Rating:
4/5 (4 votes)
Cosmic Empire lessons Tabs too difficult? Try these video lessons and learn fast
1
                \= Slide down
/= Slide up
.= Mute note immediatly after striking.
(0)= whatever note is inside the bubble is an optional note.
h= Hammer on, but you should know that.
~= Hold note until you need to release.

                        !!!ATTENTION ATTENTION!!!
                The order in which the song goes is as follows...
Intro x2
Verse x4
Pre-Bridge x1
Chorus x1
Verse x2
Pre-Bridge x1
Chorus x1
Verse x2
Ending x1


#------------------------------------------------------------------------------##

Intro/Verse:      E                 A
e|---4\2--0--2/4--0.----------------0--0-0--0-0--0-0--0-0-0-0-0--0-0-------|
B|---0----0--0----0.--(0)--(2)(0)---2--2-2--2-2--2-2--2-2-2-2-2--2-2-------|
G|---4\2--0--2/4--1.---4\2--2--2/4--2--2-2--2-2--2-2--2-2-2-2-2--2-2-------|
D|----------------2.---6\4--2--4/6--2--2-2--2-2--2-2--2-2-2-2-2--2-2-------|
A|----------------2.----------------0--0-0--0-0--0-0--0-0-0-0-0--0-0-------|
E|----------------0.-------------------------------------------------------|

Pre-Bridge:       E                 A                F#m
e|---4\2--0--2/4--0.----------------0--0-0--0-0--0-0--2-2-2-2-2--2-2-------|
B|---0----0--0----0.--(0)--(2)(0)---2--2-2--2-2--2-2--2-2-2-2-2--2-2-------|
G|---4\2--0--2/4--1.---4\2--2--2/4--2--2-2--2-2--2-2--2-2-2-2-2--2-2-------|
D|----------------2.---6\4--2--4/6--2--2-2--2-2--2-2--4-4-4-4-4--4-4-------|
A|----------------2.----------------0--0-0--0-0--0-0--4-4-4-4-4--4-4-------|
E|----------------0.----------------------------------2-2-2-2-2--2-2-------|

Bridge:           E                 A                        E7
e|---4\2--0--2/4--0.----------------0.--0--------------------0--0-0--------|
B|---0----0--0----0.--(0)--(2)(0)---2.----2-----0------------3--3-3--------|
G|---4\2--0--2/4--1.---4\2--2--2/4--2.------0h1--------------1--1-1--------|
D|----------------2.---6\4--2--4/6--2.-----------------2~----2--2-2--------|
A|----------------2.----------------0.-------------2-4-------2--2-2--------|
E|----------------0.--------------------------------------0--0--0-0--------|

Chorus:  A              D                 F       E7      A
e|----0--0-0--0-0--0-0--2--2-2--2-2--2-2--1--1-1--0--0-0--0--0-0--0-0-0-0--|
B|----2--2-2--2-2--2-2--3--3-3--3-3--3-3--1--1-1--3--3-3--2--2-2--2-2-2-2--|
G|----2--2-2--2-2--2-2--2--2-2--2-2--2-2--2--2-2--1--1-1--2--2-2--2-2-2-2--|
D|----2--2-2--2-2--2-2--0--0-0--0-0--0-0--3--3-3--2--2-2--2--2-2--2-2-2-2--|
A|----0--0-0--0-0--0-0--------------------3--3-3--2--2-2--0--0-0--0-0-0-0--|
E|----------------------------------------1--1-1--0--0-0-------------------|

     A                 D                 F       E7      A      F#m
e|---0--0-0--0-0--0-0--2--2-2--2-2--2-2--1--1-1--0--0-0--0--0-0--2-2-2-2-2-|
B|---2--2-2--2-2--2-2--3--3-3--3-3--3-3--1--1-1--3--3-3--2--2-2--2-2-2-2-2-|
G|---2--2-2--2-2--2-2--2--2-2--2-2--2-2--2--2-2--1--1-1--2--2-2--2-2-2-2-2-|
D|---2--2-2--2-2--2-2--0--0-0--0-0--0-0--3--3-3--2--2-2--2--2-2--4-4-4-4-4-|
A|---0--0-0--0-0--0-0--------------------3--3-3--2--2-2--0--0-0--4-4-4-4-4-|
E|---------------------------------------1--1-1--0--0-0----------2-2-2-2-2-|

Ending:           E                 A                        E
e|---4\2--0--2/4--0.----------------0.--0--------------------0.------------|
B|---0----0--0----0.--(0)--(2)(0)---2.----2-----0------------0.------------|
G|---4\2--0--2/4--1.---4\2--2--2/4--2.------0h1--------------1.------------|
D|----------------2.---6\4--2--4/6--2.-----------------2~----2.------------|
A|----------------2.----------------0.-------------2-4-------2.------------|
E|----------------0.--------------------------------------0--0.------------|

And to clear things up if you didn't read the ATTENTION sign at the top, this is not the 
in which the song is played its just the sections of the song.

Lyrics:

Verse 1: I'm waiting in the queue,  Chorus 1: No one to come shining clear,
         Behind the Cosmic Empire             it beads light there
         I wanna follow you,                  Where one worlds all disapear
         Behind the Cosmic Empire             it shines bright there
         An omnipresent view,
         down at the Cosmic Empire

Verse 2: Down at the Cosmic Empire,
         Down at the Cosmic Empire,
         Down at the Cosmic Empire  Chorus 2: To where our souls are filled with joy,
                                              Can't resist there
                                              Spirit no one can destroy,
                                              you'll find place there

Verse 3: (Verse 3 is the same as verse 2)
            
Submit corrections

comments powered by Disqus
↑ Back to top | George Harrison Tabs for Cosmic Empire. Lyrics for acoustic guitar and electric guitar. 1 Tablatures and chords are parodies/interpretations of the original songs. You may use it for private study, scholarship, research or language learning purposes only