>
 >
Cheer Down

Cheer Down Guitar Tabs

George Harrison - Cheer Down chords, tabs, tablatures, lyrics

Guitar lessons | Add/correct | Request | Top 50 tabs Artists:  A B C D E F G H I J K L M N O P Q R S T U V W X Y Z 0-9

Cheer Down Guitar Tabs – George Harrison

CD, Sheet music, Poster

Do you like Cheer Down? Share with your friends now
Bass TabsChordsChords v2Chords v3TabsTabs v2Ukulele
CHEER DOWN


George Harrison
Best Of Dark Horse 1976-1989


INTRO

   D
e|---------------------------------|---------------------------------|
B|-5-/-7---------------------------|-----------------5---/---7-------|
G|---------------------------------|---------------------------------|
D|---------------------------------|---------------------------------|
A|---------------------------------|---------------------------------|
E|---------------------------------|---------------------------------|

   Gm                                                A
e|---------------------------------|---------------------------------|
B|-3-/-5---------------------------|-------------------------3-------|
G|-----------------3---------------|-----------------2---------------|
D|---------------------------------|---------------------------------|
A|---------------------------------|---------------------------------|
E|---------------------------------|---------------------------------|

   D
e|---------------------------------|---------------------------------|
B|-5-/-7-----------5-/-7-----------|-----------------5---/---7-------|
G|---------------------------------|---------------------------------|
D|---------------------------------|---------------------------------|
A|---------------------------------|---------------------------------|
E|---------------------------------|---------------------------------|

   Gm                                                A
e|---------------------------------|---------------------------------|
B|-3-/-5---------------------------|---------------------------------|
G|-----------------3---------------\-----------------2---------------|
D|---------------------------------|---------------------------------|
A|---------------------------------|---------------------------------|
E|---------------------------------|---------------------------------|



       D
I can see by your grin
                C         Gm
That you're trembling within
     D         Gm          D
It's all over town, cheer down

And the smile on your face
        C               Gm
Is sometimes out of place
       D         Gm    A       D
Don't mind, no frowns,  cheer down


Gm                   D
If your hair should fall
Gm                      D
If your shares should crash
 Gm                    D              A
You'll get by even without getting a rash


            D
There's no tears to be shed
               C       Gm
I'm gonna love you instead
   D         Gm    A
I want you around,  cheer...

   D                                 Gm              A
e|---------------------------------|---------------------------------|
B|---------------------------------|-------------------------3-/-5---/
G|---------------------------------|---------------------2-----------|
D|---------------------------------|---------------------------------|
A|---------------------------------|---------------------------------|
E|---------------------------------|---------------------------------|
...down

GUITAR SOLO


   D
e|---------------------------------|---------------------------------|
B|-7---------------5-\-3-----------|---------------------3---5-\-3---|
G|---------------------------------|-2-------------------------------|
D|---------------------------------|---------------------------------|
A|---------------------------------|---------------------------------|
E|---------------------------------|---------------------------------|

   C                                 Gm
e|---------------------------------|---------------------------------|
B|-15-\-13---------------------11/13\11----------------------11------|
G|---------------------------------|---------------------------------|
D|---------------------------------|---------------------------------|
A|---------------------------------|---------------------------------|
E|---------------------------------|---------------------------------|

   D                                 Gm              A
e|---------------------------------|---------------------------------|
B|-10------10------8---\---7---\---|-5---------------------------7/8-\
G|---------------------------------|---------------------------------|
D|---------------------------------|---------------------------------|
A|---------------------------------|---------------------------------|
E|---------------------------------|---------------------------------|

   D
e|---------------------------------|-12-b-14-------------------------|
B|-7-------------------------------|---------------------------------|
G|---------------------------------|---------------------------------|
D|---------------------------------|---------------------------------|
A|---------------------------------|---------------------------------|
E|---------------------------------|---------------------------------|



Gm                    D
When your teeth drop out
 Gm                    D             A
You'll get by even without taking a bite


         D
If your dog should be dead
               C       Gm
I'm gonna love you instead
     D             Gm    A       D   Gm  A
The world loves a clown,  cheer down
   D         Gm    A
I want you around,  cheer...


GUITAR SOLO


   D
e|---------------------------------|---------------------------------|
B|-5-/-7---------------------------|-----------------5---/---7-------|
G|---------------------------------|---------------------------------|
D|---------------------------------|---------------------------------|
A|---------------------------------|---------------------------------|
E|---------------------------------|---------------------------------|
...down

   Gm
e|---------------------------------|-------------------------10--12--|
B|-3-/-5---------------------------|---------------------10----------|
G|-----------------3---------------|---------------------------------|
D|---------------------------------|---------------------------------|
A|---------------------------------|---------------------------------|
E|---------------------------------|---------------------------------|

   D
e|-12/14---------------------------|-----------------10--12--12/14---|
B|-------------10--10--------------|-------------10------------------|
G|---------------------------------|---------------------------------|
D|---------------------------------|---------------------------------|
A|---------------------------------|---------------------------------|
E|---------------------------------|---------------------------------|

   Gm
e|-10/12---------------------------|-------------------------10--12--|
B|-----------------11--------------|---------------------10----------|
G|---------------------------------|---------------------------------|
D|---------------------------------|---------------------------------|
A|---------------------------------|---------------------------------|
E|---------------------------------|---------------------------------|

   D
e|-12-b-14---------12/14-----------|---------14--15--17---------15\14|
B|---------------------------------|---------------------------------|
G|---------------------------------|---------------------------------|
D|---------------------------------|---------------------------------|
A|---------------------------------|---------------------------------|
E|---------------------------------|---------------------------------|

   Gm
e|-12------------------------------|-------------------------10--12--|
B|-----------------11--------------|---------------------10----------|
G|---------------------------------|---------------------------------|
D|---------------------------------|---------------------------------|
A|---------------------------------|---------------------------------|
E|---------------------------------|---------------------------------|

   D
e|-12-b-14-------------------------|-----------------14\10-----------|
B|---------------------------------|---------------------------------|
G|---------------------------------|---------------------------------|
D|---------------------------------|---------------------------------|
A|---------------------------------|---------------------------------|
E|---------------------------------|---------------------------------|

   Gm
e|-10b12---------------------------|-----------------------------14--/
B|-----------------11--------------|---------------------------------|
G|---------------------------------|---------------------------------|
D|---------------------------------|---------------------------------|
A|---------------------------------|---------------------------------|
E|---------------------------------|---------------------------------|

   D
e|-17------------------------------|---------15b17---14-12\10---12/14\
B|---------------------------------|---------------------------------|
G|---------------------------------|---------------------------------|
D|---------------------------------|---------------------------------|
A|---------------------------------|---------------------------------|
E|---------------------------------|---------------------------------|

   Gm
e|-12----------10------------------|---------------------------------|
B|-----------------11--------------|-------------------------3---5---|
G|---------------------------------|---------------------2-----------|
D|---------------------------------|---------------------------------|
A|---------------------------------|---------------------------------|
E|---------------------------------|---------------------------------|

   D
e|---------------------------------|---------------------------------|
B|-5-/-7---------------------------|---------7---8---10-----------8\7|
G|---------------------------------|---------------------------------|
D|-------------7---7---------------|---------------------------------|
A|---------------------------------|---------------------------------|
E|---------------------------------|---------------------------------|

   Gm
e|---------------------------------|---------------------------------|
B|-5-------------------------------|-----------------------------3---/
G|---------------------------------|---------------------------------|
D|-----------------8---------------|---------------------------------|
A|---------------------------------|---------------------------------|
E|---------------------------------|---------------------------------|

   D
e|---------------------------------|---------------------------------|
B|-15---\--10----------------------|-------------8/10/13--------11\10/
G|---------------------------------|---------------------------------|
D|---------------------------------|---------------------------------|
A|---------------------------------|---------------------------------|
E|---------------------------------|---------------------------------|

   Gm
e|---------------------------------|-----------------------------10--/
B|-11--------------8---------------|---------------------------------|
G|---------------------------------|---------------------------------|
D|---------------------------------|---------------------------------|
A|---------------------------------|---------------------------------|
E|---------------------------------|---------------------------------|

   D
e|-22---\--17----------------------|-------------17/20\18----------17/
B|---------------------------------|---------------------------------|
G|---------------------------------|---------------------------------|
D|---------------------------------|---------------------------------|
A|---------------------------------|---------------------------------|
E|---------------------------------|---------------------------------|

   Gm
e|-18------------------------------|-------------------------10--12--|
B|---------------------------------|---------------------10----------|
G|-------------15--15--------------|---------------------------------|
D|---------------------------------|---------------------------------|
A|---------------------------------|---------------------------------|
E|---------------------------------|---------------------------------|

   D
e|-12/14---------------------------|-----14--14--12--12--10--10------|
B|-------------10--10--------------|-----------------------------10--|
G|---------------------------------|---------------------------------|
D|---------------------------------|---------------------------------|
A|---------------------------------|---------------------------------|
E|---------------------------------|---------------------------------|

   Gm
e|---------------------------------|---------------------------------|
B|-11------------------------------|---------------------------------|
G|---------------------------------|---------------------------------|
D|---------------------------------|---------------------------------|
A|---------------------------------|---------------------------------|
E|---------------------------------|---------------------------------|

   D
e|-10--10--10--10--10--10------10--|-10--10--10--10--10--10--10--10--|
B|-10--10--10--10--10--10------10--|-10--10--10--10--10--10--10--10--|
G|---------------------------------|---------------------------------|
D|---------------------------------|---------------------------------|
A|---------------------------------|---------------------------------|
E|---------------------------------|---------------------------------|

   Gm
e|---------------------------------|-------------------------10--12--|
B|-8-------------------------------|---------------------10----------|
G|---------------------------------|---------------------------------|
D|---------------------------------|---------------------------------|
A|---------------------------------|---------------------------------|
E|---------------------------------|---------------------------------|

   D
e|-12/14---------------------------|---------------------------------|
B|-------------10--10--------------|-------------10--10\8----/---10--|
G|---------------------------------|---------------------------------|
D|---------------------------------|---------------------------------|
A|---------------------------------|---------------------------------|
E|---------------------------------|---------------------------------|

   Gm
e|---------------------------------|---------------------------------|
B|-13--------------11--------------|-----------------10------8-------|
G|---------------------------------|---------------------------------|
D|---------------------------------|---------------------------------|
A|---------------------------------|---------------------------------|
E|---------------------------------|---------------------------------|

   D
e|---------------------------------|---------------------------------|
B|-7-------------------------------|---------------------------------|
G|---------------------------------|---------------------------------|
D|---------------------------------|---------------------------------|
A|---------------------------------|---------------------------------|
E|---------------------------------|---------------------------------|





Comments


Popular George Harrison tabs & chords
Crackerbox Palace Chords
Flying Hour Chords
Here Comes The Moon 2 Chords
When We Was Fab Chords
Cockamamie Business Tabs
Ski-ing Intro Tabs
While My Guitar Gently Weeps 4 Tabs
Beware Of Darkness Ukulele
Here Comes The Sun Ukulele
Lord Loves The One Ukulele


Song lyrics



↑ Back to top | Tablatures and chords are parodies/interpretations of the original songs. You may use it for private study, scholarship, research or language learning purposes only
© 2014 AZChords.com Contact us | Privacy policy | DMCA | Add/correct tabs | Request tabs | Top 50 tabs