» » »

George Gershwin, I Got Tabs (ver.1)

Artists:  A B C D E F G H I J K L M N O P Q R S T U V W X Y Z # 

I Got Tabs (ver.1)

George Gershwin Tabs
Rating:
0/5 (0 votes)
I Got lessons Tabs too difficult? Try these video lessons and learn fast
                (Rhythm)
E|-------------------5---------------------------------------|
B|-----3---5----8----5----10-------8-----5-------3---3-------|
G|-----4---4----5----6----7--------7-----5-------5---5-------|
D|-----4---3----5---------7--------6-----5-------4-----------|
A|-----------------------------8---7---------6---5-----------|
E|-----3---4----5----6----7-----------6--5----------------4--|

E|-------------------------7---7----5h7p5--------------------|
B|-----3---5----8----10----7---7----5------8----6-----4------|
G|-----4---4----9----9-----7---7----5------5----5-----5------|
D|-----4---3----9----8-----0--------0------5----4-----4------|
A|----------------------------------------------5------------|
E|--3------4----8----9----7----------------5----------4------|
            
Submit corrections

comments powered by Disqus
↑ Back to top | George Gershwin Tabs for I Got. Lyrics for acoustic guitar and electric guitar. Tablatures and chords are parodies/interpretations of the original songs. You may use it for private study, scholarship, research or language learning purposes only