>
 >
Dark As Night

Dark As Night Guitar Tabs

Genuflect - Dark As Night chords, tabs, tablatures, lyrics

Guitar lessons | Add/correct | Request | Top 50 tabs Artists:  A B C D E F G H I J K L M N O P Q R S T U V W X Y Z 0-9

Dark As Night Guitar Tabs – Genuflect

CD, Sheet music, Poster

Do you like Dark As Night? Share with your friends now
Tabs

TUNING: CGCFAD

LEGEND: /  slide up
        \  slide down
        h  hammer-on
        p  pull-off
        b  bend
        <> harmonic (resting a finger on a fret without pressing down)
        x  palm-mute

NOTE: In passages where everything is palm-muted, I put (palm-muted).
      If there are notes within that passage that aren't muted, then
      I indicated them with a "...(N-PM)" below those particular notes.



INTRO (palm-muted)

D|---------------------------------------------------------------------|
A|---------------------------------------------------------------------|
F|--------9-9-9-7-7-7-10-10-10-9-9-9-------9-9-9-7-7-7-10-10-10-9-9-9--|
C|--7-7-7----------------------------7-7-7-----------------------------|
G|---------------------------------------------------------------------|
C|---------------------------------------------------------------------|


VERSE 1 (palm-muted)

D|---------------------------------------------------------------------|
A|---------------------------------------------------------------------|
F|--------9-9-9-7-7-7-10-10-10-9-9-9-------9-9-9-7-7-7-10-10-10-9-9-9--|
C|--7-7-7----------------------------7-7-7-----------------------------|
G|---------------------------------------------------------------------|
C|---------------------------------------------------------------------|

D|---------------------------------------------------------------------|
A|---------------------------------------------------------------------|
F|--------9-9-9-7-7-7-10-10-10-9-9-9-------9-9-9-7-7-7-----------------|
C|--7-7-7----------------------------7-7-7-------------10-10-10-9-9-9--|
G|---------------------------------------------------------------------|
C|---------------------------------------------------------------------|

D|---------------------------------------------------------------------|
A|---------------------------------------------------------------------|
F|--------9-9-9-7-7-7-10-10-10-9-9-9-------9-9-9-7-7-7-10-10-10-9-9-9--|
C|--7-7-7----------------------------7-7-7-----------------------------|
G|---------------------------------------------------------------------|
C|---------------------------------------------------------------------|

D|---------------------------------------------------------------------|
A|---------------------------------------------------------------------|
F|--------9-9-9-7-7-7-10-10-10-9-9-9-------9-9-9-7-7-7-10-10-10-9-9-9--|
C|--7-7-7----------------------------7-7-7-----------------------------|
G|---------------------------------------------------------------------|
C|---------------------------------------------------------------------|
                                     .................................(N-PM)


CHORUS

D|-------------------------------------------------------------------|
A|-------------------------------------------------------------------|
F|-------------------------------------------------------------------|
C|--7-7-2-2-0-0-3-2-7-7-2-2-0-0-3-2-7-7-2-2-0-0-3-2-7-7-2-2-0-0-3-2--|
G|--7-7-2-2-0-0-3-2-7-7-2-2-0-0-3-2-7-7-2-2-0-0-3-2-7-7-2-2-0-0-3-2--|
C|--7-7-2-2-0-0-3-2-7-7-2-2-0-0-3-2-7-7-2-2-0-0-3-2-7-7-2-2-0-0-3-2--|

D|-------------------------------------------------------------------|
A|-------------------------------------------------------------------|
F|-------------------------------------------------------------------|
C|--7--7-77-3--3-33-6--6-66-2--2-22-7--7-77-3--3-33-2--2-22-6--6-66--|
G|--7--7-77-3--3-33-6--6-66-2--2-22-7--7-77-3--3-33-2--2-22-6--6-66--|
C|--7--7-77-3--3-33-6--6-66-2--2-22-7--7-77-3--3-33-2--2-22-6--6-66--|


VERSE 2 (palm-muted)

D|---------------------------------------------------------------------|
A|---------------------------------------------------------------------|
F|--------9-9-9-7-7-7-10-10-10-9-9-9-------9-9-9-7-7-7-10-10-10-9-9-9--|
C|--7-7-7----------------------------7-7-7-----------------------------|
G|---------------------------------------------------------------------|
C|---------------------------------------------------------------------|

D|---------------------------------------------------------------------|
A|---------------------------------------------------------------------|
F|--------9-9-9-7-7-7-10-10-10-9-9-9-------9-9-9-7-7-7-----------------|
C|--7-7-7----------------------------7-7-7-------------10-10-10-9-9-9--|
G|---------------------------------------------------------------------|
C|---------------------------------------------------------------------|

D|----------------------------------------------|
A|----------------------------------------------|
F|-------9----7----10--9-------9----7----10--9--|
C|--7---------------------7---------------------| 
G|----------------------------------------------|
C|----------------------------------------------|
   ............................................(N-PM)

D|------------------------------------|
A|------------------------------------|
F|--------9-9-9-7-7-7-10-10-10-9-9-9--|
C|--7-7-7-----------------------------|
G|------------------------------------|
C|------------------------------------|

D|----------------------------------------------------|
A|----------------------------------------------------|
F|--------------<9>-<9>-<9>-<7>-<7>-7-10-10-10-9-9-9--|
C|--<7>-<7>-<7>---------------------------------------|
G|----------------------------------------------------|
C|----------------------------------------------------|
   ..................................................(N-PM)


CHORUS

D|-------------------------------------------------------------------|
A|-------------------------------------------------------------------|
F|-------------------------------------------------------------------|
C|--7-7-2-2-0-0-3-2-7-7-2-2-0-0-3-2-7-7-2-2-0-0-3-2-7-7-2-2-0-0-3-2--|
G|--7-7-2-2-0-0-3-2-7-7-2-2-0-0-3-2-7-7-2-2-0-0-3-2-7-7-2-2-0-0-3-2--|
C|--7-7-2-2-0-0-3-2-7-7-2-2-0-0-3-2-7-7-2-2-0-0-3-2-7-7-2-2-0-0-3-2--|

D|-------------------------------------------------------------------|
A|-------------------------------------------------------------------|
F|-------------------------------------------------------------------|
C|--7--7-77-3--3-33-6--6-66-2--2-22-7--7-77-3--3-33-2--2-22-6--6-66--|
G|--7--7-77-3--3-33-6--6-66-2--2-22-7--7-77-3--3-33-2--2-22-6--6-66--|
C|--7--7-77-3--3-33-6--6-66-2--2-22-7--7-77-3--3-33-2--2-22-6--6-66--|

D|-------------------------------------------|
A|-------------------------------------------|
F|-------------------------------------------|
C|--7-xx-7-xx-3-xx-3-xx-6-xx-6-xx-2-xx-2-xx--|
G|--7-xx-7-xx-3-xx-3-xx-6-xx-6-xx-2-xx-2-xx--|
C|--7-xx-7-xx-3-xx-3-xx-6-xx-6-xx-2-xx-2-xx--|

D|-------------------------------------------|
A|-------------------------------------------|
F|-------------------------------------------|
C|--7-xx-7-xx-3-xx-3-xx-2-xx-2-xx-6-xx-6-xx--|
G|--7-xx-7-xx-3-xx-3-xx-2-xx-2-xx-6-xx-6-xx--|
C|--7-xx-7-xx-3-xx-3-xx-2-xx-2-xx-6-xx-6-xx--|


SOLO (wah pedal)

D|------------------------------------------------------------------------| 
A|---------------------<9>-----<9>----------------------------------------|
F|-----------------<9>-----<9>---------<7>-----<7>-----<7>----------------|
C|--0----------<9>-----------------<9>-----<9>-----<9>----------<7>--<5>--| 
G|------------------------------------------------------------------------|
C|------------------------------------------------------------------------|

D|------------------------------------------------------------| 
A|---------------------------------------------8---11---11----|
F|----9h10-9------9h10-9---9-7---7\5-7h9-9---7---7----7----7--|
C|--7-----------7---------------------------------------------| 
G|------------------------------------------------------------|
C|------------------------------------------------------------|


BREAKDOWN (palm-muted)

D|---------------------------------------------------------------------|
A|---------------------------------------------------------------------|
F|---------------------------------------------------------------------|
C|--0h3----------------------------------------------------------------|
G|--0h3-------------------------------3-3-3-3-3-3-333h5-5-5-5-5-5-555--|
C|--0h3-3-3-3-3-3-333p2-2-2-2-2-2-222-----------------------------000--|
    ...                                                               (N-PM)

D|---------------------------------------------------------------------|
A|---------------------------------------------------------------------|
F|---------------------------------------------------------------------|
C|--0h3----------------------------------------------------------------|
G|--0h3----------------------------------------------5--5--5--5--5-----|
C|--0h3-3-3-3-3-3-333p2-2-2-2-2-2-222p0-0-0-0-0-0-0--0--0--0--0--0-----|
    ...                                              .  .  .  .  .    (N-PM)

D|---------------------------------------------------------------------|
A|---------------------------------------------------------------------|
F|---------------------------------------------------------------------|
C|--0h3----------------------------------------------------------------|
G|--0h3-------------------------------3-3-3-3-3-3-333h5-5-5-5-5-5-555--|
C|--0h3-3-3-3-3-3-333p2-2-2-2-2-2-222-----------------------------000--|
    ...                                                               (N-PM)

D|---------------------------------------------------------------------|
A|---------------------------------------------------------------------|
F|---------------------------------------------------------------------|
C|--0h3----------------------------------------------------------------|
G|--0h3----------------------------------------------5-5-5-5-5-5-5-5---|
C|--0h3-3-3-3-3-3-333p2-2-2-2-2-2-222p0-0-0-0-0-0-0--------------------|
    ...                                              . . . . . . . .  (N-PM)


BRIDGE (wah pedal)

D|---------------------------------------------------------------------| 
A|------------------------------------------------------8-8-8-8-6-6-6--|
F|----------9-9-9-9-10-10-10-10-7-7-7-7---------9-9-9-9----------------|
C|--7-7-7-7-----------------------------7-7-7-7------------------------| 
G|---------------------------------------------------------------------|
C|---------------------------------------------------------------------|

D|----------------------------------|
A|--6/8-8--6-5--5h6-5----17-17-17b--|
F|----------------------------------|
C|----------------------------------|
G|----------------------------------|
C|----------------------------------|


CHORUS & OUTRO

D|-------------------------------------------------------------------|
A|-------------------------------------------------------------------|
F|-------------------------------------------------------------------|
C|--7--7-77-3--3-33-6--6-66-2--2-22-7--7-77-3--3-33-2--2-22-6--6-66--|
G|--7--7-77-3--3-33-6--6-66-2--2-22-7--7-77-3--3-33-2--2-22-6--6-66--|
C|--7--7-77-3--3-33-6--6-66-2--2-22-7--7-77-3--3-33-2--2-22-6--6-66--|

D|-------------------------------------------|
A|-------------------------------------------|
F|-------------------------------------------|
C|--7-xx-7-xx-3-xx-3-xx-6-xx-6-xx-2-xx-2-xx--|
G|--7-xx-7-xx-3-xx-3-xx-6-xx-6-xx-2-xx-2-xx--|
C|--7-xx-7-xx-3-xx-3-xx-6-xx-6-xx-2-xx-2-xx--|

D|---------------------------------------------|
A|---------------------------------------------|
F|---------------------------------------------|
C|--7-xx-7-xx-3-xx-3-xx-2-xx-2-xx-6-xx-6-xx-0--|
G|--7-xx-7-xx-3-xx-3-xx-2-xx-2-xx-6-xx-6-xx-0--|
C|--7-xx-7-xx-3-xx-3-xx-2-xx-2-xx-6-xx-6-xx-0--|



And that's how I play Genuflect's "Dark As Night". Enjoy! If you have any
questions regarding this, or any of my other tabs, then please feel free to





Comments


Popular Genuflect tabs & chords
Bullet Tabs
Dark As Night Intro Tabs
Dead Right Tabs
Epinephrine Tabs
Head Hearse Tabs
Long Way Home Tabs
Revelation Tabs


Song lyrics



↑ Back to top | Tablatures and chords are parodies/interpretations of the original songs. You may use it for private study, scholarship, research or language learning purposes only
© 2014 AZChords.com Contact us | Privacy policy | DMCA | Add/correct tabs | Request tabs | Top 50 tabs