» » »

Hillbilly Shoes Tabs (ver.2)

Artists:  A B C D E F G H I J K L M N O P Q R S T U V W X Y Z # 

Hillbilly Shoes Tabs (ver.2)

Gentry Montgomery
Rating:
0/5 (0 votes)

Hard to play? Try these video lessons and learn fast.
                This is the first TAB I've posted, but it beats the hell outta the other ones I've seen 
here for this

song.  I don't have the lead down yet, but maybe someone can help me with that.  The 
is sound, as

well as instrumental chord phrasing and the little run/fills during that.  Hope this helps!

h=hammer on
p=pull off
^=bend up
~=quick vibrato

e   --------------------------------------------------------------------|
B   --------------------------------------------------------------------|
G   --------------------------------------------------------------------|
D   -----0-0-3p0-0-0-----0-0--3p0-0-0-----0-0-3p0-0-0-------------------|
A   -0h3-------------0h3--------------0h3-------------3p0---------------|
D   ------------------------------------------------------3^p0----------|

e   --------------------------------------------------------------------|
B   --------------------------------------------------------------------|
G   ---------------------2p0--------------------------------------------|
D   -----0-0-3p0-0-0----------3p0-0-0-----0-0-3p0-0-0-------------------|
A   -0h3-------------0h3--------------0h3-------------3p0---------------|
D   ------------------------------------------------------3^p0----------|


      D              C            G        F   C    D
I was there when the men came, and told us all the  news
 D         C                 G       F     C    D
Father forgive them for they know not what they do
D          F   G   D      F   G    D
Till they walk a while, a country mile
      A   C     D
In my hillbilly shoes

e   --------------------------------------------------------------------|
B   --------------------------------------------------------------------|
G   --------------------------------------------------------------------|
D   -----0-0-3p0-0-0-----0-0--3p0-0-0-----0-0-3p0-0-0-------------------|
A   -0h3-------------0h3--------------0h3-------------3p0---------------|
D   ------------------------------------------------------3^p0----------|

e   --------------------------------------------------------------------|
B   --------------------------------------------------------------------|
G   ---------------------2p0--------------------------------------------|
D   -----0-0-3p0-0-0----------3p0-0-0-----0-0-3p0-0-0-------------------|
A   -0h3-------------0h3--------------0h3-------------3p0---------------|
D   ------------------------------------------------------3^p0----------|


D             C             G       F  C    D
You want to judge me by the whiskey on my breath
D             C               G          F   C   D
You think you know me but you ain't seen nothing yet
D        F    G D        F    G  D
Till you walk a while, a country mile
      A    C    D
In my hillbilly shoes (small lead riff)
      A    C
In my hillbilly shoes


e   --------------------------------------------------------------------|
B   --------------------------------------------------------------------|
G   --------------------------------------------------------------------|
D   -----0-0-3p0-0-0-----0-0--3p0-0-0-----0-0-3p0-0-0-------------------|
A   -0h3-------------0h3--------------0h3-------------3p0---------------|
D   ------------------------------------------------------3^p0----------|


e   --------------------------------------------------------------------|
B   --------------------------------------------------------------------|
G   ---------------------2p0--------------------------------------------|
D   -----0-0-3p0-0-0----------3p0-0-0-----0-0-3p0-0-0-------------------|
A   -0h3-------------0h3--------------0h3-------------3p0---------------|
D   ------------------------------------------------------3^p0----------|


(Palm Muted Strumming)
D            D          D            D
You work all day in the muck and the mire
D              D         D            D
Dance a little jig and a stomp by the fire
D         D          D          D
Ain't too much these boots cant do
D
Might even kick a little sense into you


e   --------------------------------------------------|
B   --------------------------------------------------|
G   --0h2-0-----0h2-0----0h2-0-----------------------.|
D   --------3p0-------3~-------3p0-0-0---------------.|
A   -----------------------------------3p0------------|
D   ---------------------------------------3^p0-------|


(Palm Muted Strumming)
         D        D             D          D
Well i'm going up cripple creek going in a run
D        D                D             D
Going up cripple creek to have a little fun
D       D         D          D
Law man said they found some tracks
D
People saw them leavin but they never come back

(lead over this rhythm)
F C |D |F C |D |F |C |G |F C D


D             C                 G              F
OH, you don't know me, you don't know, you don't know
C         D
you don't know
D         F   G   D      F    G   D
Till you walk a while, a country mile
      A    C     D
In my hillbilly shoes (small lead riff)
      A    C
In my hillbilly shoes


e   --------------------------------------------------|
B   --------------------------------------------------|
G   --0h2-0-----0h2-0----0h2-0-----------------------.|
D   --------3p0-------3~-------3p0-0-0---------------.|
A   -----------------------------------3p0------------|
D   ---------------------------------------3^p0-------|

(more lead over this rhythm)
F C |D |F C |D |F C |D |F C

e   --------------------------------------------------|
B   --------------------------------------------------|
G   --0h2-0-----0h2-0----0h2-0-----------------------.|
D   --------3p0-------3~-------3p0-0-0---------------.|
A   -----------------------------------3p0------------|
D   ---------------------------------------3^p0-------|
            
Hard to play? Try these video lessons and learn fast. | Correct




comments powered by Disqus
↑ Back to top | Tablatures and chords are parodies/interpretations of the original songs. You may use it for private study, scholarship, research or language learning purposes only