» » »

Misunderstanding Bass tabs (ver.1)

Artists:  A B C D E F G H I J K L M N O P Q R S T U V W X Y Z # 

Misunderstanding Bass tabs (ver.1)

Genesis
Rating:
0/5 (0 votes)

Hard to play? Try these video lessons and learn fast.
                Genesis – Misunderstanding
================
Written by Phil Collins, from the 1980 "Duke" album
Bass tab by RonnyENTJ

Intro/Verse/Chorus:
     D   E   F   A  G                D   E   F   A  G
G|---------------2--0----------------------------2--0---------------|
D|---0--02--23--3--------------------0--02--23--3-------------------|
A|------------------------------------------------------------------|
E|------------------------------------------------------------------|

     D   E   F   A  G                C     C E    G   C
G|---------------2--0-----------------------------0-----------------|
D|---0--02--23--3----------------------------2----------------------|
A|-----------------------------------3-----3----------3-------------|
E|------------------------------------------------------------------|

Pre-chorus:
     Ab  Ab  Ab  Ab    Ab-A-Ab   Gb-G-Ab  Ab              
G|------------------------------------------------------------------|
D|-------6-------6-------676----6------6-------6-------676----6-----|
A|------------------------------------------------------------------|
E|---4--4---44--4---44--4---4--4-234--4---44--4---44--4---4--4-44---|
     G              F
G|---------------------------------|
D|-------5-------5------3-------3--|
A|---------------------------------|
E|---3--3---33--3-321--1---11--1-12| x2
     G              A
G|----------------------2----------|
D|-------5-------5-----------------|
A|------------------0--0----0000012|
E|---3--3---33--3-34---------------|
            
Hard to play? Try these video lessons and learn fast. | Correct




comments powered by Disqus
↑ Back to top | Tablatures and chords are parodies/interpretations of the original songs. You may use it for private study, scholarship, research or language learning purposes only