» » »

Genesis, I Can't Dance Bass tabs (ver.1)

Artists:  A B C D E F G H I J K L M N O P Q R S T U V W X Y Z # 

I Can't Dance Bass tabs (ver.1)

Genesis Tabs
 Rating:
4/5 (4 votes)
I Can't Dance lessons Tabs too difficult? Try these video lessons and learn fast
                Riff 1

G -------------------------------------------|
D -------------------------------------------|
A 1---1----1--1-1---111---1----4---1-1-------|
E -------------------------------4-----------|

Riff 2

G -----------------------|
D -----------------------|
A 4------3------1--------|
E -----------------------|

Riff 3

G ------------------------------------------|
D ------------------------------------------|
A 1---1----1--1-1---111---1-1----1----------|
E ---------------------------------4----4---|

Riff 4

G -------------------------|
D -------------------------|
A 4------2-----------------|
E -----------------4-------|

Riff 1 x 5
Riff 3 x 1
Small Break
Riff 1 x 4
Riff 2 x 1
Riff 1 x 5
Riff 3 x 1
Riff 2 x 1
Riff 4 x 1
Riff 1 until end
Fade on 10th
            
Submit corrections

comments powered by Disqus
↑ Back to top | Genesis Bass for I Can't Dance. Lyrics for acoustic guitar and electric guitar. Tablatures and chords are parodies/interpretations of the original songs. You may use it for private study, scholarship, research or language learning purposes only