» » »

Firth Of Fifth Bass tabs (ver.1)

Artists:  A B C D E F G H I J K L M N O P Q R S T U V W X Y Z # 

Firth Of Fifth Bass tabs (ver.1)

Genesis
Rating:
0/5 (0 votes)

Hard to play? Try these video lessons and learn fast.
                (Intro)
I know the intros aren't much welcomed, but this is all I have so far. I couldn't find 
(up until the part where the lyrics stop after, "till lured by the siren's cry."


G|-----------------------------44--6-4-2-1-------------------------0---1--3--|
D|------------------------1----------------4-2---0---0-----------------------|
A|2---0-----------------4---2----------------------- ---3-2-0------------1---|
E|--------4---2---0---2---------------------------------------33-3---4-------|


G|-----------------------------------------44-6-4-2-1--------------------------|
D|-------------------------------------1--------------4-2---0---0--------------|
A|-1-2-44-2-1-2---0-----------------4---2-------------------------3-2-0--------|
E|---------------------4---2---0---2-------------------------------------33-3--|


G|-0---1---3-----------------------------------------------------------------|
D|---------------------------------------------------------------------------|
A|-------1---3--------------------------------------2---0-------------------2|
E|---4-------------------------------------------------------4---2---0---2---|
                          Then lyrics for a while... "not now, now now."

That is all I could figure out. The part after this gets trickier so if anyone else can 
it, please put it on this page.
            
Hard to play? Try these video lessons and learn fast. | Correct




comments powered by Disqus
↑ Back to top | Tablatures and chords are parodies/interpretations of the original songs. You may use it for private study, scholarship, research or language learning purposes only