» » »

Generation X, Kiss Me Deadly Tabs (ver.2)

Artists:  A B C D E F G H I J K L M N O P Q R S T U V W X Y Z # 

Kiss Me Deadly Tabs (ver.2)

Generation X Tabs
Rating:
5/5 (5 votes)
Kiss Me Deadly lessons Tabs too difficult? Try these video lessons and learn fast
                Generation X
Kiss Me Deadly

Tuned somewhere in between regular and 1/2 step down with a capo on the first fret!
everything is written in relativity to the capo

* begin distortion
~ vibrato
x mute
/\ slide

Intro:
----------------------------------------------
--------3-----3------3---3------3------3------
------0-------0----0-0---0------0------0------
----5------4-----2-----0------0------0--------
----------------------------3------2-----0----
-------------------------------------------3--

Verse:
listen to the song for the rhythm
------------------------------------------------
------------------------------------------------
-----0-----0-----0--0---0---0------4/--2-----1--
----0-0---0-0---0--0---0-0-0-------5/--3----2---
---3-----2-----3--2---3---2--------5/--3---2----
-----------------------------------3/--1--0-----
same as the above here
----------------------
----------------------
-----5/---7---5---7---
----5/---7----5---7---
---3/---5-----3---5---
----------------------

bridge:
"casualty.. havin fun"
 
------------------
------------------x2
--------55--------
---55-x-55-x-5------
---55-x-33-x-5------
---33-x----x-3------

--------------
--------------
-4\--2-----1--
-5\--3----2---
-5\--3---2----
-3\--1--0-----

chorus:
oh kiss me... deadly
--------------------------
--------------------------x2
----0--0-------0--0-------
---0--0-------0--0--------
--3--3---3-0-2--2---------
--------------------------

Tonight..
----------------------------------------------
--------3-----3------3---3------3------3------
------0-------0----0-0---0------0------0------
----5------4-----2-----0------0------0--------
----------------------------3------2-----0----
-------------------------------------------3--

Verse 2:
listen to the song for the exact amount of time 
-------------------------------*-----------------
--------------------------------*----------------
-----0-----0-----0--0---0---0---*---4\--2-----1--
----0-0---0-0---0--0---0-0-0----*---5\--3----2---
---3-----2-----3--2---3---2-----*---5\--3---2----
--------------------------------*---3\--1--0-----

then just this chord until bridge
Same as the above for the rhythm
---------   --------------
---------   --------------
--5------   --5/---7---------
--5------   --5/---7---------
--3------   --3/---5--------
---------   ---------------


bridge:
"casualty.. havin fun"
 
------------------
------------------x2
--------55--------
---55-x-55-x-5------
---55-x-33-x-5------
---33-x----x-3------

--------------
--------------
-4\--2-----1--
-5\--3----2---
-5\--3---2----
-3\--1--0-----

chorus2:
oh kiss me... deadly
--------------------------
--------------------------
----0--0-------0--0-------
---0--0-------0--0--------
--3--3---3-0-2--2---------
--------------------------

Tonight..
----------------------------------------------
--------3-----3------3---3------3------3------
------0-------0----0-0---0------0------0------
----5------4-----2-----0------0------0--------
----------------------------3------2-----0----
-------------------------------------------3--

Verse3:

------------------------
------------------------x3
--55555555--------------
--55555555-x-55-x-5-----
--33333333-x-55-x-5-----
-----------x-33-x-3-----

--------------
--------------
-4\--2-----1--
-5\--3----2---
-5\--3---2----
-3\--1--0-----

-------------
--------------
--5/---7---------
--5/---7---------
--3/---5--------
---------------

bridge:
".. havin fun"
 
------------------
------------------x2
--------55--------
---55-x-55-x-5------
---55-x-33-x-5------
---33-x----x-3------

--------------
--------------
-4\--2-----1--
-5\--3----2---
-5\--3---2----
-3\--1--0-----

chorus3:
oh kiss me... deadly
--------------------------
--------------------------x2
----0--0-------0--0-------
---0--0-------0--0--------
--3--3---3-0-2--2---------
--------------------------

Tonight..
----------------------------------------------
----------------------------------------------
-------------11111111--55555555---------------
--55555555---22222222--55555555--5-----
--55555555---22222222--33333333--5-----
--33333333---00000000------------3-----


solo:
e---------------------------------------------------------------
b---------------------------------------------------11-10-8~~~~~~~~~~/---
g----~12/--~9--9-~10/--9-10-/12----/~12/--~9-9/-~10---------------------

after solo
-------------------------
-------------------------x2
----0--0-------0--0------
---0--0-------0--0-------
--3--3---3-0-2--2--------
-------------------------


------------------------
------------------------X5
--------0---------------
-------2-2-0------0-----
----333----------2-2-0--
--------------333-------


--------------
-4\--2-----1--
-5\--3----2---
-5\--3---2----
-3\--1--0-----
                             the fill on top of that
------------------------     ------------
------------------------     ------------
--55555555/--77777777---X4   --10-9---8~-
--55555555/--77777777---     ------------
--33333333/--55555555---     ------------
------------------------     ------------

bridge:
"casualty.. havin fun"
 
--------------------
------------------x4
--------55----------
---55-x-55-x-5------
---55-x-33-x-5------
---33-x----x-3------

palm mute this section
------------------
------------------
-4444--2222---1-1-
-5555--3333---2-2--x4
-5555--3333---2-2---
-3333--1111---0-0----

chorus:
oh kiss me... deadly
--------------------------   
--------------------------
----0--0-------0--0-------X8 
---0--0-------0--0--------
--3--3---3-0-2--2---------
--------------------------    
^
these are played on top of each other

------------------------
------------------------X8
--------0---------------
-------2-2-0------0-----
----333----------2-2-0--
--------------333-------

Tonight..
----------------------------------------------
--------3-----3------3---3------3------3------
------0-------0----0-0---0------0------0------
----5------4-----2-----0------0------0--------
----------------------------3------2-----0----
-------------------------------------------3--
            
Submit corrections

comments powered by Disqus
↑ Back to top | Generation X Tabs for Kiss Me Deadly. Lyrics for acoustic guitar and electric guitar. Tablatures and chords are parodies/interpretations of the original songs. You may use it for private study, scholarship, research or language learning purposes only