» » »

Gbh, Diplomatic Immunity Tabs (ver.1)

Artists:  A B C D E F G H I J K L M N O P Q R S T U V W X Y Z # 

Diplomatic Immunity Tabs (ver.1)

Gbh Tabs
 Rating:
4/5 (4 votes)
Diplomatic Immunity lessons Tabs too difficult? Try these video lessons and learn fast
1
                -------------------------------------------------------------------------------
Diplomatic Immunity - G.B.H.
City Baby's Revenge
-------------------------------------------------------------------------------

Tuning: Guitar 1 - EADGBE
        Guitar 2 - EADGBE

Intro (Guitar 1 Only)
e|----------------------------------|
B|----------------------------------|
G|-7--9-10--9--7~--7--9-10--12-10-9-|
D|-0--0--0--0--0---0--0--0---0--0-0-|
A|----------------------------------|
E|----------------------------------|

Both Guitars play for the rest of the song
e|----------------------------------|
B|----------------------------------|
G|-7--9-10--9--7~--7--9-10--12-10-9-|
D|-0--0--0--0--0---0--0--0---0--0-0-|
A|----------------------------------|
E|----------------------------------| x7

e|---------------------------------------------------------------------|
B|---------------------------------------------------------------------|
G|---------------------------------------------------------------------|
D|---------------------------------------------------------------------|
A|-7-7--7--7-7-7--7-5-5--5--5-5-5--5-7-7--7--7-7-7--7-3-3--3--3-3-3--3-|
E|-5-5--5--5-5-5--5-3-3--3--3-3-3--3-5-5--5--5-5-5--5-1-1--1--1-1-1--1-|

e|-----------------------------------------|
B|-----------------------------------------|
G|-7/9-9--9-7/9-9--9-7/9-9-7/9-9-7/9-9-9-9-|
D|-----------------------------------------|
A|-----------------------------------------|
E|-----------------------------------------| (0:34)

e|----------------------------------|
B|----------------------------------|
G|-7--9-10--9--7~--7--9-10--12-10-9-|
D|-0--0--0--0--0---0--0--0---0--0-0-|
A|----------------------------------|
E|----------------------------------| x4

e|---------------------------------------------------------------------|
B|---------------------------------------------------------------------|
G|---------------------------------------------------------------------|
D|---------------------------------------------------------------------|
A|-7-7--7--7-7-7--7-5-5--5--5-5-5--5-7-7--7--7-7-7--7-3-3--3--3-3-3--3-|
E|-5-5--5--5-5-5--5-3-3--3--3-3-3--3-5-5--5--5-5-5--5-1-1--1--1-1-1--1-|

e|-----------------------------------------|
B|-----------------------------------------|
G|-7/9-9--9-7/9-9--9-7/9-9-7/9-9-7/9-9-9-9-|
D|-----------------------------------------|
A|-----------------------------------------|
E|-----------------------------------------| (0:56)

e|----------------------------------|
B|----------------------------------|
G|-7--9-10--9--7~--7--9-10--12-10-9-|
D|-0--0--0--0--0---0--0--0---0--0-0-|
A|----------------------------------|
E|----------------------------------| x8

e|---------------------------------------------------------------------|
B|---------------------------------------------------------------------|
G|---------------------------------------------------------------------|
D|---------------------------------------------------------------------|
A|-7-7--7--7-7-7--7-5-5--5--5-5-5--5-7-7--7--7-7-7--7-3-3--3--3-3-3--3-|
E|-5-5--5--5-5-5--5-3-3--3--3-3-3--3-5-5--5--5-5-5--5-1-1--1--1-1-1--1-|

e|-----------------------------------------|
B|-----------------------------------------|
G|-7/9-9--9-7/9-9--9-7/9-9-7/9-9-7/9-9-9-9-|
D|-----------------------------------------|
A|-----------------------------------------|
E|-----------------------------------------| (1:3)

e|-------------------------------------------------------------|
B|-------------------------------------------------------------|
G|-7--9-10--7-9-10-12--10-9-7--5--7--9-10--7-9-10-12--10-12-14-|
D|-0--0--0--0-0--0--0---0-0-0--0--0--0--0--0-0--0--0---0--0--0-|
A|-------------------------------------------------------------|
E|-------------------------------------------------------------| x2 (1:43)

e|----------------------------------|
B|----------------------------------|
G|-7--9-10--9--7~--7--9-10--12-10-9-|
D|-0--0--0--0--0---0--0--0---0--0-0-|
A|----------------------------------|
E|----------------------------------| x2

e|---------------------------------------------------------------------|
B|---------------------------------------------------------------------|
G|---------------------------------------------------------------------|
D|---------------------------------------------------------------------|
A|-7-7--7--7-7-7--7-5-5--5--5-5-5--5-7-7--7--7-7-7--7-3-3--3--3-3-3--3-|
E|-5-5--5--5-5-5--5-3-3--3--3-3-3--3-5-5--5--5-5-5--5-1-1--1--1-1-1--1-|

e|-----------------------------------------|
B|-----------------------------------------|
G|-7/9-9--9-7/9-9--9-7/9-9-7/9-9-7/9-9-9-9-|
D|-----------------------------------------|
A|-----------------------------------------|
E|-----------------------------------------|

e|----------------------------------|     e|--------|
B|----------------------------------|     B|--------|
G|-7--9-10--9--7~--7--9-10--12-10-9-|     G|-7----7-|
D|-0--0--0--0--0---0--0--0---0--0-0-|     D|-0----0-|
A|----------------------------------|     A|--------|
E|----------------------------------| x4  E|--------|

| /  slide up
| \  slide down
| h  hammer-on
| p  pull-off
| ~  vibrato
| +  harmonic
| x  Mute note
===============================================================================
            
Submit corrections

comments powered by Disqus
↑ Back to top | Gbh Tabs for Diplomatic Immunity. Lyrics for acoustic guitar and electric guitar. 1 Tablatures and chords are parodies/interpretations of the original songs. You may use it for private study, scholarship, research or language learning purposes only