» » »

Gbh, Dead On Arrival Tabs (ver.1)

Artists:  A B C D E F G H I J K L M N O P Q R S T U V W X Y Z # 

Dead On Arrival Tabs (ver.1)

Gbh Tabs
Rating:
5/5 (1 vote)
Dead On Arrival lessons Tabs too difficult? Try these video lessons and learn fast
                -------------------------------------------------------------------------------
Leather, Bristles, No Survivors, and Sick Boys
-------------------------------------------------------------------------------

Tuning: Standard

e|-----------------------------------------------------------------------------------------|
B|-----------------------------------------------------------------------------------------|
G|-5/7--------5/7--------5-9-9-9-9-9-9-9-9-9-9-9-9-9-9-9-9-9-9-9-9-9-9-9-9-9-9-9-9-9-9-9-9-|
D|-5/7--------5/7--------5-9-9-9-9-9-9-9-9-9-9-9-9-9-9-9-9-9-9-9-9-9-9-9-9-9-9-9-9-9-9-9-9-|
A|-3/5--------3/5--------3-7-7-7-7-7-7-7-7-7-7-7-7-7-7-7-7-7-7-7-7-7-7-7-7-7-7-7-7-7-7-7-7-|
E|-----------------------------------------------------------------------------------------|

e|---------------------------------------|
B|---------------------------------------|
G|-7-7-7-7-7-7-7-7-12--10-10-10-10-10-10-|
D|-7-7-7-7-7-7-7-7-12--10-10-10-10-10-10-|
A|-5-5-5-5-5-5-5-5-10---8--8--8--8--8--8-|
E|---------------------------------------| x4

e|-----------------------------------------------------------------|
B|-----------------------------------------------------------------|
G|-9-9-9-9-9-9-9-9-9-9-9-9-9-9-9-9-9-9-9-9-9-9-9-9-9-9-9-9-9-9-9-9-|
D|-9-9-9-9-9-9-9-9-9-9-9-9-9-9-9-9-9-9-9-9-9-9-9-9-9-9-9-9-9-9-9-9-|
A|-7-7-7-7-7-7-7-7-7-7-7-7-7-7-7-7-7-7-7-7-7-7-7-7-7-7-7-7-7-7-7-7-|
E|-----------------------------------------------------------------|

e|---------------------------------------|
B|---------------------------------------|
G|-7-7-7-7-7-7-7-7-12--10-10-10-10-10-10-|
D|-7-7-7-7-7-7-7-7-12--10-10-10-10-10-10-|
A|-5-5-5-5-5-5-5-5-10---8--8--8--8--8--8-|
E|---------------------------------------| x8

e|-----------------------------------------------------------------|
B|-----------------------------------------------------------------|
G|-9-9-9-9-9-9-9-9-9-9-9-9-9-9-9-9-9-9-9-9-9-9-9-9-9-9-9-9-9-9-9-9-|
D|-9-9-9-9-9-9-9-9-9-9-9-9-9-9-9-9-9-9-9-9-9-9-9-9-9-9-9-9-9-9-9-9-|
A|-7-7-7-7-7-7-7-7-7-7-7-7-7-7-7-7-7-7-7-7-7-7-7-7-7-7-7-7-7-7-7-7-|
E|-----------------------------------------------------------------|

e|---------------------------------------|
B|---------------------------------------|
G|-7-7-7-7-7-7-7-7-12--10-10-10-10-10-10-|
D|-7-7-7-7-7-7-7-7-12--10-10-10-10-10-10-|
A|-5-5-5-5-5-5-5-5-10---8--8--8--8--8--8-|
E|---------------------------------------| x4

e|----------------------------------------------------------------|
B|----------------------------------------------------------------|
G|-7-7------7-7-------7-7--------7-7--------5/7--------5/7--------|
D|-7-7------7-7-------7-7--------7-7--------5/7--------5/7--------|
A|-5-5------5-5-------5-5--------5-5--------3/5--------3/5--------|
E|----------------------------------------------------------------|

e|-------------------------------------------------------------------|
B|-------------------------------------------------------------------|
G|-5-9-9-9-9-9-9-9-9-9-9-9-9-9-9-9-9-9-9-9-9-9-9-9-9-9-9-9-9-9-9-9-9-|
D|-5-9-9-9-9-9-9-9-9-9-9-9-9-9-9-9-9-9-9-9-9-9-9-9-9-9-9-9-9-9-9-9-9-|
A|-3-7-7-7-7-7-7-7-7-7-7-7-7-7-7-7-7-7-7-7-7-7-7-7-7-7-7-7-7-7-7-7-7-|
E|-------------------------------------------------------------------|

e|---------------------------------------|
B|---------------------------------------|
G|-7-7-7-7-7-7-7-7-12--10-10-10-10-10-10-|
D|-7-7-7-7-7-7-7-7-12--10-10-10-10-10-10-|
A|-5-5-5-5-5-5-5-5-10---8--8--8--8--8--8-|
E|---------------------------------------| x8

e|-------------------------------------------------------------------|
B|-------------------------------------------------------------------|
G|-5-9-9-9-9-9-9-9-9-9-9-9-9-9-9-9-9-9-9-9-9-9-9-9-9-9-9-9-9-9-9-9-9-|
D|-5-9-9-9-9-9-9-9-9-9-9-9-9-9-9-9-9-9-9-9-9-9-9-9-9-9-9-9-9-9-9-9-9-|
A|-3-7-7-7-7-7-7-7-7-7-7-7-7-7-7-7-7-7-7-7-7-7-7-7-7-7-7-7-7-7-7-7-7-|
E|-------------------------------------------------------------------|

e|---------------------------------------|
B|---------------------------------------|
G|-7-7-7-7-7-7-7-7-12--10-10-10-10-10-10-|
D|-7-7-7-7-7-7-7-7-12--10-10-10-10-10-10-|
A|-5-5-5-5-5-5-5-5-10---8--8--8--8--8--8-|
E|---------------------------------------| x8

e|-------------------------------------------------------------------|
B|-------------------------------------------------------------------|
G|-5-9-9-9-9-9-9-9-9-9-9-9-9-9-9-9-9-9-9-9-9-9-9-9-9-9-9-9-9-9-9-9-9-|
D|-5-9-9-9-9-9-9-9-9-9-9-9-9-9-9-9-9-9-9-9-9-9-9-9-9-9-9-9-9-9-9-9-9-|
A|-3-7-7-7-7-7-7-7-7-7-7-7-7-7-7-7-7-7-7-7-7-7-7-7-7-7-7-7-7-7-7-7-7-|
E|-------------------------------------------------------------------|

e|---------------------------------------|
B|---------------------------------------|
G|-7-7-7-7-7-7-7-7-12--10-10-10-10-10-10-|
D|-7-7-7-7-7-7-7-7-12--10-10-10-10-10-10-|
A|-5-5-5-5-5-5-5-5-10---8--8--8--8--8--8-|
E|---------------------------------------| x4

e|--------------------------------|
B|--------------------------------|
G|-5/7--------5/7--------7--------|
D|-5/7--------5/7--------7--------|
A|-3/5--------3/5--------5--------|
E|--------------------------------|


| /  slide up
| \  slide down
| h  hammer-on
| p  pull-off
| ~  vibrato
| +  harmonic
| x  Mute note
===============================================================================
            
Submit corrections

comments powered by Disqus
↑ Back to top | Gbh Tabs for Dead On Arrival. Lyrics for acoustic guitar and electric guitar. Tablatures and chords are parodies/interpretations of the original songs. You may use it for private study, scholarship, research or language learning purposes only