» » »

Gbh, Crush 'em Tabs (ver.1)

Artists:  A B C D E F G H I J K L M N O P Q R S T U V W X Y Z # 

Crush 'em Tabs (ver.1)

Gbh Tabs
Rating:
0/5 (0 votes)
Crush 'em lessons Tabs too difficult? Try these video lessons and learn fast
                Esta cancion es basicamente lo mismo, se ve larga, pero todo se repite, y esta 100% 
FELIZ NAVIDAD y FELIZ 2008
------------------------------------------------------------------------
This song it's basically the same, it looks long, but all repeats , and this is 100% 
MERRY CHISTMAS and HAPPY 2008

GBH - CRUSH 'EM

INTRO
e---------------------------------------------------------|
B---------------------------------------------------------|
G------7h0--7h0-7h0---7-7------7h0---9h0---7h0---7-7/9-7--|
D--5--5----5---5------7-7--5--5-----5----5-------7-7/9-7--|
A--5------------------5-5--5---------------------5-5/7-5--|
E--3-----------------------3------------------------------|

e---------------------------------------------|
B---------------------------------------------|
G------7h0--7h0-7h0---7--7-7-5-9--7-----------|
D--5--5----5---5------7--7-7-5-9--7-(x15)-----|
A--5------------------5--5-5-3-7--5-----------|
E--3------------------------------------------|

VERSE
e-------------------------------------------------------------|
B-------------------------------------------------------------|
G----------5---------------5--------------------------5-------|
D--5-------5-(x8)--5-------5-(x8)--4/5--4/5--4/5--4/5-5-(x8)--|
A--5-(x8)--3-------5-(x8)--3-------4/5--4/5--4/5--4/5-3-------|
E--3---------------3---------------2/3--2/3--2/3--2/3---------|

e-----------------------------|
B-----------------------------|
G---------------------5-------|
D--4/5--4/5--4/5--4/5-5-(x8)--|
A--4/5--4/5--4/5--4/5-3-------|
E--2/3--2/3--2/3--2/3---------|

CHORUS(x3)
e-------------------------------|
B-------------------------------|
G--7------9------5--------------|
D--7-(x4)-9-(x4)-5-(x5)-5-------|
A--5------7------3------3-(x4)--|
E-----------------------3-------|

CHORUS 2nd PART
e------------------------------------------------|
B------------------------------------------------|
G--5-5-4--4-4-4---------------7------------------|
D--5-5-4--4-4-4-7-7-5--5-5-5--7-LET RING---------|
A--3-3-2--2-2-2-7-7-5--5-5-5--5------------------|
E---------------5-5-3--3-3-3---------------------|

VERSE
e-------------------------------------------------------------|
B-------------------------------------------------------------|
G----------5---------------5--------------------------5-------|
D--5-------5-(x8)--5-------5-(x8)--4/5--4/5--4/5--4/5-5-(x8)--|
A--5-(x8)--3-------5-(x8)--3-------4/5--4/5--4/5--4/5-3-------|
E--3---------------3---------------2/3--2/3--2/3--2/3---------|

e-----------------------------|
B-----------------------------|
G---------------------5-------|
D--4/5--4/5--4/5--4/5-5-(x8)--|
A--4/5--4/5--4/5--4/5-3-------|
E--2/3--2/3--2/3--2/3---------|

CHORUS(x3)
e-------------------------------|
B-------------------------------|
G--7------9------5--------------|
D--7-(x4)-9-(x4)-5-(x5)-5-------|
A--5------7------3------3-(x4)--|
E-----------------------3-------|

CHORUS 2nd PART
e------------------------------------------------|
B------------------------------------------------|
G--5-5-4--4-4-4---------------7-7-7-7-7-7-7------|
D--5-5-4--4-4-4-7-7-5--5-5-5--7-7-7-7-7-7-7------|
A--3-3-2--2-2-2-7-7-5--5-5-5--5-5-5-5-5-5-5------|
E---------------5-5-3--3-3-3---------------------|

SOLO (x2)
e----------------------------------------------------|
B----------------------------------------------------|
G--5h6h5-------5h6h5-------5h6h5-------5-6-8-6-5-6---|
D--------6h5h6-------6h5h6-------6h5h6---------------|
A----------------------------------------------------|
E----------------------------------------------------|

SOLO SECOND PART (x2)
e--------------------------------|
B--------------------------------|
G--------------------------------|
D---12--12-12--12-12-12-12/14----|
A--------------------------------|
E--------------------------------|

AFTER SOLO 2nd part
e------------------------------------------------|
B------------------------------------------------|
G--5-5-4--4-4-4---------------7------------------|
D--5-5-4--4-4-4-7-7-5--5-5-5--7-LET RING---------|
A--3-3-2--2-2-2-7-7-5--5-5-5--5------------------|
E---------------5-5-3--3-3-3---------------------|

VERSE
e-------------------------------------------------------------|
B-------------------------------------------------------------|
G----------5---------------5--------------------------5-------|
D--5-------5-(x8)--5-------5-(x8)--4/5--4/5--4/5--4/5-5-(x8)--|
A--5-(x8)--3-------5-(x8)--3-------4/5--4/5--4/5--4/5-3-------|
E--3---------------3---------------2/3--2/3--2/3--2/3---------|

e-----------------------------|
B-----------------------------|
G---------------------5-------|
D--4/5--4/5--4/5--4/5-5-(x8)--|
A--4/5--4/5--4/5--4/5-3-------|
E--2/3--2/3--2/3--2/3---------|

CHORUS(x3)
e-------------------------------|
B-------------------------------|
G--7------9------5--------------|
D--7-(x4)-9-(x4)-5-(x5)-5-------|
A--5------7------3------3-(x4)--|
E-----------------------3-------|

CHORUS 2nd PART
e------------------------------------------------|
B------------------------------------------------|
G--5-5-4--4-4-4---------------7-7-7-7-7-7-7------|
D--5-5-4--4-4-4-7-7-5--5-5-5--7-7-7-7-7-7-7------|
A--3-3-2--2-2-2-7-7-5--5-5-5--5-5-5-5-5-5-5------|
E---------------5-5-3--3-3-3---------------------|

SOLO (x2)
e----------------------------------------------------|
B----------------------------------------------------|
G--5h6h5-------5h6h5-------5h6h5-------5-6-8-6-5-6---|
D--------6h5h6-------6h5h6-------6h5h6---------------|
A----------------------------------------------------|
E----------------------------------------------------|

AFTER SOLO
e--------------------------------------|
B--------------------------------------|
G----------5---------------5-----------|
D--5-------5-(x8)--5-------5-(x8)------|
A--5-(x8)--3-------5-(x8)--3-----------|
E--3---------------3-------------------|

OUTRO (same as intro)
e-----------------------------------|
B-----------------------------------|
G--------7h0---7h0---7h0---7-7/9-7--|
D----5--5-----5----5-------7-7/9-7--|
A----5---------------------5-5/7-5--|
E----3------------------------------|

e--------------------------|
B--------------------------|
G--------------------------|
D--5--------------5/3------|
A--5--LET RING**--5/3------|
E--3--------------3/1------|

**only 5 seconds



•mxggot•
            

comments powered by Disqus
↑ Back to top | Gbh Tabs for Crush 'em. Lyrics for acoustic guitar and electric guitar. Tablatures and chords are parodies/interpretations of the original songs. You may use it for private study, scholarship, research or language learning purposes only