» » »

Gavin Degraw, In Love With A Girl Tabs (ver.2)

Artists:  A B C D E F G H I J K L M N O P Q R S T U V W X Y Z # 

In Love With A Girl Tabs (ver.2)

Gavin Degraw Tabs
 Rating:
4/5 (5 votes)
In Love With A Girl lessons Tabs too difficult? Try these video lessons and learn fast
1
                Tuning: This is the normal tuning
Intro
e|------------------------------------------------------------------------------|
B|------------------------------------------------------------------------------|
G|-0-0-----0-3-3 -0---3h-5/7-3h-5-3---------------------------------------------| x2!
D|------3-----------------------------------------------------------------------|
A|------------------------------------------------------------------------------|
E|------------------------------------------------------------------------------|
So then he comes in with the singing. He does alot of piano he strums a G Chord
through it.  If you listen closely.
The G chord is down there

e|--3---------------------------------------------------------------------------|
B|--3---------------------------------------------------------------------------|
G|--4---------------------------------------------------------------------------|
D|--5---------------------------------------------------------------------------|
A|--5---------------------------------------------------------------------------|
E|--3---------------------------------------------------------------------------|
Then Comes the chorus.  Hard to hear but i think its strumming G, F, C

e|---3-------------------------------------------------------------------------|
B|---0-------------------------------------------------------------------------|
G|--0--------------------------------------------------------------------------|
D|--0--------------------------------------------------------------------------|  Theres G

A|--2--------------------------------------------------------------------------|
E|--3--------------------------------------------------------------------------|
e|----1------------------------------------------0-----------------------------|
B|---1------------------------------------------1------------------------------|
G|--2------------------------------------------0-------------------------------|
My D line got messed up sorry.  Heres F and C
 Theres F                        Heres C
D|-3------------------------------------------2------------------------------|
A|-------------------------------------------3-------------------------------|
E|---------------------------------------------------------------------------|
After it goes back to the riff

0-0-----0-3-3 -0---3h-5/7-3h-5-3------------------------------------------------|x2!
D|------3-----------------------------------------------------------------------|
And thats pretty much it guys!



| /  slide up
| \  slide down
| h  hammer-on
| p  pull-off
| ~  vibrato
| +  harmonic
| x  Mute note
            
Submit corrections

comments powered by Disqus
↑ Back to top | Gavin Degraw Tabs for In Love With A Girl. Lyrics for acoustic guitar and electric guitar. 1 Tablatures and chords are parodies/interpretations of the original songs. You may use it for private study, scholarship, research or language learning purposes only