» » »

Chariot Tabs (ver.3)

Artists:  A B C D E F G H I J K L M N O P Q R S T U V W X Y Z # 

Chariot Tabs (ver.3)

Gavin Degraw
Rating:
0/5 (0 votes)

Hard to play? Try these video lessons and learn fast.
                (Intro)
-------------------------------------------------------------------------------
                             Chariot - Gavin Degraw
-------------------------------------------------------------------------------

Tuning: Standard

This is what the beginning of Chariot should sound like on guitar. Every
note should kind of have a vibrato on it, but the ones labeled "~" do
more vibrato.

e|------------------------------------------------------------------------|
B|-17-17-----------------------------------12-12~-------------------------|
G|-14/15--14--12H14P12-----------12-14~----12---------12-14-14-14/16-14-12|
D|---------------------14-14~-14--------14~--------14---------------------|
A|------------------------------------------------------------------------|
E|------------------------------------------------------------------------|

e|------------------------------------------------------------------------|
B|------------------------12-12~------------------------------------------|
G|------------12-14-------12---------12-14-14-16-12-----------------------|
D|-14--14~-14----------14~--------14--------------------------------------|
A|------------------------------------------------------------------------|
E|------------------------------------------------------------------------|


| /  slide up
| H  hammer-on
| P  pull-off
| ~  vibrato
===============================================================================
            
Hard to play? Try these video lessons and learn fast. | Correct




comments powered by Disqus
↑ Back to top | Tablatures and chords are parodies/interpretations of the original songs. You may use it for private study, scholarship, research or language learning purposes only