>
 >
Youre A Mean One Mr Grinch 2

Youre A Mean One Mr Grinch 2 Guitar Tabs

Gary Hoey - Youre A Mean One Mr Grinch 2 chords, tabs, tablatures, lyrics

Guitar lessons | Add/correct | Request | Top 50 tabs Artists:  A B C D E F G H I J K L M N O P Q R S T U V W X Y Z 0-9

Youre A Mean One Mr Grinch 2 Guitar Tabs – Gary Hoey

CD, Sheet music, Poster

Do you like Youre A Mean One Mr Grinch 2? Share with your friends now
TabsTabs v2Tabs v3
            Play 2x
e-------------------[]-------------------------|
B-------------------[]-------------------------|
G-----------------o-[]-------------------------|
D-------------2--o-[]-----------2-------------|
A-------------------[]-------------------------|
E----03^0-0---0----[]--03^0-0---0------------|
                                    Play 5x
e------------------------------------------[]--|
B------------------------------------------[]--|
G----------------------------------------o-[]--|
D-------------2--------------------------o-[]--|
A------------------------------------------[]--|
E----0--3-2-0---0-----0-1-0----------------[]--|

Verse
e----------------------------------------------|
B-x/-------------------------------------------|
G-x/------4-----------------4------------------|
D-x/-5/7----------------5-----7~~~-------------|
A-x/--------7~~--------------------------------|
E----------------------------------------------|


e-------------------------------------|
B------------------------4~~----------|
G------4~~-------6~~------------------|
D--5-7-----------------4--------------|
A--------------7----------------------|
E-------------------------------------|

e-------------------------------------|
B-------5-----------------------------|
G-4-4-4----7--5--4--5-----------------|
D----------------------7~~------------|
A-------------------------------------|
E-------------------------------------|

e-------------------------------------|
B-------------------------------------|
G---------7-5-4----4~~----------------|
D-7-7-7--------7---------------------|
A-------------------------------------|
E-------------------------------------|

               ~~~~~~~
e-------------------------------------|
B--------------4-5-4-5-----4---4-5~~--|
G----------------------------6--------|
D---5--4------------------------------|
A---------7~~-------------------------|
E-------------------------------------|


chorus
e------------------------------------------------------|
B------------------------------------------------------|
G------------------------------------------------------|
D-------------2------------2---------------------------|
A------------------------------------------------------|
E----03^0-0----0---03^0-------0-1-0------------------|

e---------------------------------------------------|
b---------------------------------------------------|
g---------------------------------------------------|
d------------2--------------2-----------------------|
a---------------------------------------------------|
e---03^0-0-----0----03^0-----0-----0-3-2-1-0------|
                                   play
e--------------------------------------------|
B--------------------------------------------|
G--------------------------------------------|
D-------------2-------------2---------------|
A--------------------------------------------|
E----03^0-0---0------03^0-0---0----0-1-0---|

Verse
e----------------------------------------------|
B-x/-------------------------------------------|
G-x/------4-----------------4------------------|
D-x/-5/7----------------5-----7~~~-------------|
A-x/--------7~~--------------------------------|
E----------------------------------------------|

e-------------------------------------|
B------------------------4~~----------|
G------4~~-------6~~------------------|
D--5-7-----------------4--------------|
A--------------7----------------------|
E-------------------------------------|

e-------------------------------------|
B-------5-----------------------------|
G-4-4-4----7--5--4--5-----------------|
D----------------------7~~------------|
A-------------------------------------|
E-------------------------------------|

e-------------------------------------|
B-------------------------------------|
G---------7-5-4----4~~----------------|
D-7-7-7--------7---------------------|
A-------------------------------------|
E-------------------------------------|

               ~~~~~~~
e-------------------------------------|
B--------------4-5-4-5-----4---4-5~~--|
G----------------------------6--------|
D---5--4------------------------------|
A---------7~~-------------------------|
E-------------------------------------|

chorus
e------------------------------------------------------|
B------------------------------------------------------|
G------------------------------------------------------|
D-------------2------------2---------------------------|
A------------------------------------------------------|
E----03^0-0----0---03^0-------0-1-0------------------|

e---------------------------------------------------|
b---------------------------------------------------|
g---------------------------------------------------|
d------------2--------------2-----------------------|
a---------------------------------------------------|
e---03^0-0-----0----03^0-----0-----0-3-2-1-0------|
                                   play
e-----------------------------------------------|
B-----------------------------------------------|
G-----------------------------------------------|
D------------2---------------2-----------------|
A-----------------------------------------------|
E----03^0-0---0------03^0-0---0----0-1-0------|


Solo
e--------------|-----14-12-14-0-------|------------------|----|
B----13-b-14-~-|--12-------------12-13|b14~-14-13--------|----|
G--------------|----------------------|------------14--11|~~--|
D--------------|----------------------|------------------|----|
A--------------|----------------------|------------------|----|
E--------------|----------------------|------------------|----|

e-------------------------------------------------------------------|
B------10p7---10p7---10p7---10p7-----12p10------12p10-----12p10-----|
G----9------9------9------9-------11---------11--------11-----------|
D-------------------------------------------------------------------|
A-------------------------------------------------------------------|
E-------------------------------------------------------------------|

e---------------------------------------------------------------------|
B------12p10------15p12------15p12------15p12------15p12------17p15---|
G--11---------14---------14---------14---------14---------16----------|
D---------------------------------------------------------------------|
A---------------------------------------------------------------------|
E---------------------------------------------------------------------|

e-------------------------------------------------------------------|
b------17p15------17p15------17p1517b18----------------------------|
g--16---------16---------16-----------------------------------------|
d-------------------------------------------------------------------|
a-------------------------------------------------------------------|
e-------------------------------------------------------------------|


 bridge whoville part
e|--7---9~~-|--7-------7~~-|------7---12-|--7--7-----------------------|
B|----9-----|----10-7------|-10-9--------|-------10-9h10p9-7-----------|
G|----------|--------------|-------------|-----------------------------|
D|----------|--------------|-------------|-----------------------------|
A|----------|--------------|-------------|-----------------------------|
E|----------|--------------|-------------|-----------------------------|

e|--7---9~~-|-7------7--9-11-12-7-|-7----------------------------------|
B|----9-----|---10-7--------------|---10-9-10p9-7----------------------|
G|----------|---------------------|---------------9--------------------|
D|----------|---------------------|------------------------------------|
A|----------|---------------------|------------------------------------|
E|----------|---------------------|------------------------------------|

chorus
e------------------------------------------------------|
B------------------------------------------------------|
G------------------------------------------------------|
D-------------2------------2---------------------------|
A------------------------------------------------------|
E----03^0-0----0---03^0-------0-1-0------------------|


e---------------------------------------------------|
b---------------------------------------------------|
g---------------------------------------------------|
d------------2--------------2-----------------------|
a---------------------------------------------------|
e---03^0-0-----0----03^0-----0-----0-3-2-1-0------|
                                   play
e----------------------------------------------|
B----------------------------------------------|
G----------------------------------------------|
D-------------2-------------2-----------------|
A----------------------------------------------|
E----03^0-0---0------03^0-0---0----0-1-0-----|

That is all I got thus far.  Any help on the outro solo and rhythm sections would be great.





Comments


Popular Gary Hoey tabs & chords
Carol Of The Bells Intro Tabs
Christmas Song Tabs
Drive Tabs
Feliz Navidad Tabs
Hocus Pocus Tabs
I Saw Mommy Kissing Santa Claus Tabs
Motown Fever Tabs
Rockin Around The Christmas Tree Tabs
Rockin Around The Christmas Tree Intro Tabs
Youre A Mean One Mr Grinch 1 Tabs


Song lyrics



↑ Back to top | Tablatures and chords are parodies/interpretations of the original songs. You may use it for private study, scholarship, research or language learning purposes only
© 2014 AZChords.com Contact us | Privacy policy | DMCA | Add/correct tabs | Request tabs | Top 50 tabs