» » »

Garbage, You Look So Fine Bass tabs (ver.1)

Artists:  A B C D E F G H I J K L M N O P Q R S T U V W X Y Z # 

You Look So Fine Bass tabs (ver.1)

Garbage Tabs
Rating:
0/5 (0 votes)
Hard to play? Try these video lessons and learn fast.
                GARBAGE
Standard Tunning

Verse:
--------------------------------------------------------------
--------------------------------------------------------------
--------------------------2--3--x-x-3-3-3--3--x-x-3-3---------
-0--x-x-0-0-0--0--x-x-0-0-----------------------------5-------

--------------------------------------------------------------
-----------------------------------------0-2------------------
------------------------------2--x-x-2-2-----2--x-x-2-2-------
-3--x-x-3-3-3--3--x-x-3-0-3-5---------------------------3-----

Chorus:
-------------------------------------------------|------------
-------------------------------------------------|------------
-3--x-x-3-3-x------------------------------------|--5---------
--------------2-3--x-x-3-3-x-2-0--x-x-0-0-x-0-2--|------------

End:
repeats C and E until the end...
            

comments powered by Disqus
↑ Back to top | Garbage Bass for You Look So Fine. Lyrics for acoustic guitar and electric guitar. Tablatures and chords are parodies/interpretations of the original songs. You may use it for private study, scholarship, research or language learning purposes only