» » »

The World Is Not Enough Bass tabs (ver.1)

Artists:  A B C D E F G H I J K L M N O P Q R S T U V W X Y Z # 

The World Is Not Enough Bass tabs (ver.1)

Garbage
Rating:
0/5 (0 votes)

Hard to play? Try these video lessons and learn fast.
                Intro:
G|---------------------------------------------------|
D|--------------------------0------------------------|
A|-------------1111111133333-3-------------111111113-|
E|-111111111111---------------1111111111111----------|

Verse:
G|--------------------------------------------|
D|--------------------------------------------|
A|-1--1-1-3----3-1--4-3-1----3-1-111------3-3-|
E|---------1--1-1--------1--1-1-----222222----|

Chorus:
G|--------------------------------------------------------|
D|--------------------------------------------------------|
A|----------------------------4-3-11111111111133333333343-|
E|-111111111111111111111111111----------------------------|

Bridge:
G|--------1-0------------------1-0------------|
D|-----------3-------3------------3-----------|
A|-1111111----3333333-3-1111111----33333333-3-|
E|--------------------------------------------|
            
Hard to play? Try these video lessons and learn fast. | Correct




comments powered by Disqus
↑ Back to top | Tablatures and chords are parodies/interpretations of the original songs. You may use it for private study, scholarship, research or language learning purposes only