» » »

Nobody Can Win Tabs (ver.1)

Artists:  A B C D E F G H I J K L M N O P Q R S T U V W X Y Z # 

Nobody Can Win Tabs (ver.1)

Garbage
Rating:
0/5 (0 votes)

Hard to play? Try these video lessons and learn fast.
                Song Title: Nobody Can Win
Tuning: Normal

Chords used for this song.

       A     A/2   B    Cmin7  E     E5    Emaj7
E|-----------------1-----0-----------0-----0-----|
B|-----2-----------3-----0-----------0-----0-----|
G|-----2-----2-----3-----6-----1-----9-----8-----|
D|-----2-----2-----3-----6-----2-----9-----9-----|
A|-----------------1-----4-----2-----7-----7-----|
E|-----------------------------------------------|

This should be a little better lots of open strings should give your fingers a good work 
if you are a beginner.

Listen to the song to get the rythmn of the song.

Intro: E5    E maj7    C#min7    A/2

Verse:
E5    E maj7    C#min7    A/2

Chorus:
A     B     E5     E maj7

Chours: A     B     E5     E maj7

This is the part with the tubular bells.
E|-----------------------------------------------------|
B|-------12-----------9---------------12---------------|
G|---9--------8---6-------2---4---9--------8---9---8---|
D|-----------------------------------------------------|
A|-----------------------------------------------------|
E|-----------------------------------------------------|
            
Hard to play? Try these video lessons and learn fast. | Correct




comments powered by Disqus
↑ Back to top | Tablatures and chords are parodies/interpretations of the original songs. You may use it for private study, scholarship, research or language learning purposes only