» » »

Driving Lesson Tabs (ver.1)

Artists:  A B C D E F G H I J K L M N O P Q R S T U V W X Y Z # 

Driving Lesson Tabs (ver.1)

Garbage
Rating:
0/5 (0 votes)

Hard to play? Try these video lessons and learn fast.
                Band: Garbage
Song Title: Driving Lesson
Tuning: Normal

***This Song Is Mostly Drum & Bass With A Bit Of Guitar. Mostly Just A Few Riffs 
Here & There. Listen To
Song For The Rhythm***

Bass Riff:
         
G|--------------|--------------|--------------|--------------|
D|--------------|--------------|--------------|--------------|
A|---1----1-3---|---1----1-3---|---1----1-3---|---1----5-4-3-|
E|-3---3------1-|-3---3------1-|-3---3------1-|-3---3--------|

Guitar Riff A:
E|------------------------|
B|------------------------|
G|------------------------|
D|------------------------|
A|-3----2-1----5----4--3--|
E|------------------------|

Intro:
Guitar I: Guitar Riff A
Guitar II: Plays Bass Riff

Car, car, car 
Car, car, car 


Verse 1:
Guitar I: Guitar Riff A
Guitar II: Plays Bass Riff

Let's get behind the wheel 
We'll go driving 
To the mountains 
To the rooftops 

We can take it nice and slow 
I'll be driving 
To the icebergs 
To the edges 

Chorus
Guitar I: Plays Bass Riff
Guitar II: Plays Riff A

Car, get in the car 
Car, get in the car 


Verse 2:
Guitar I: Bass Riff
Guitar II: Guitar Riff B

Guitar Riff B:
E|--------------|--------------|--------------|--------------|
B|--------------|--------------|--------------|--------------|
G|--------------|--------------|--------------|--------------|
D|---3----3-5---|---3----3-5---|---3----3-5---|---3----7-6-5-|
A|-5---5------3-|-5---5------3-|-5---5------3-|-5---5--------|
E|--------------|--------------|--------------|--------------|


Heading to the clouds 
Past the buildings 
By the harbor 
Through the storm 

Tear across the page 
By the marker 
Leave the light on 
By the boy's side 

Chorus 2:
Guitar I: Guitar Riff A
Guitar II: Plays Bass Riff

Car, get in the car
(Do Do Doo Aww) (Do Do Doo Aww)

Car, get in the car
(Do Do Doo Aww) (Do Do Doo Aww)

Do Do Doo Aww...Do Do Doo Aww...
Do Do Doo Aww...Do Do Doo Aww...
Do Do Doo Aww...

Bridge:
***No Guitar***

I can make an honest man of you 
I can make you clean if you want me to 
I can make you go very far 
Just take the car 

Outro:
Guitar I: Guitar Riff A
Guitar II: Plays Bass Riff

Car, get in the car
(Do Do Doo Aww) (Do Do Doo Aww)

Car, get in the car
(Do Do Doo Aww) (Do Do Doo Aww)

Take the car (gotta feel to make it real).....
            
Hard to play? Try these video lessons and learn fast. | Correct




comments powered by Disqus
↑ Back to top | Tablatures and chords are parodies/interpretations of the original songs. You may use it for private study, scholarship, research or language learning purposes only