» » »

Garbage, Candy Says Tabs (ver.1)

Artists:  A B C D E F G H I J K L M N O P Q R S T U V W X Y Z # 

Candy Says Tabs (ver.1)

Garbage Tabs
Rating:
0/5 (0 votes)
Candy Says lessons Tabs too difficult? Try these video lessons and learn fast
                Im not sure abot this tab,but is what i got from being an hour n a half listening to the 
b-side...they play it in a different way than Velvet Underground or Blind Mellon,but in 
is the same...though the chords are different.......anyway,here it is....

INTRO

Candy says, i've come to hate my body
----------------------------------------------------------|
------8----8-----------11-------11----------11------11----|
---------8---8-------------11-------11----------11----11--|
----8---------------11-------------------11---------------|
--6--------------8---------------------9------------------|
----------------------------------------------------------|

and all that it requires in this world
---------------------------------------------------------------------------|
---------------------------9-----9-----------6----6-------8---8--------6-6-|
-------9--9/10/9--------------9-----9----------6------------8----8------6--|
----------------10-----10-------------------------------8------------------|
----10--------------8---------------------8----------6---------------8-----|
-8-------------------------------------6----------------------------6------|
Candy says, i'd like to know completely
what other souls discreetly talk about


those parts repeat like 2 times

CHORUS (repeat two times)

i'm gonna watch the blue birds fly
over my shoulders
and im gonna watch 'em pass me by
maybe when i'm older
-----------------------------------------------------------|
------8---8---------13----13---------10----10-----6---6----|
--------8---8----------13----13---------10----------6---6--|
----8------------13---------------10-----------------------|
--6-----------11----------------8---------------8----------|
----------------------------------------------6------------|

END OF CHORUS

What do you think i'd see...if i could walk away from me?...
-----------------------------------------------|
--------6---6-------4---4--------8---8-----8---|
----------6---6-------4---4--------8---8---8---|
-------------------------------------------8---|
----8-------------6------------8-----------6---|
--6-------------4------------6-----------------|

and it goes like that repeatedly
            
Submit corrections

comments powered by Disqus
↑ Back to top | Garbage Tabs for Candy Says. Lyrics for acoustic guitar and electric guitar. Tablatures and chords are parodies/interpretations of the original songs. You may use it for private study, scholarship, research or language learning purposes only