» » »

Down In Flames Bass tabs (ver.1)

Artists:  A B C D E F G H I J K L M N O P Q R S T U V W X Y Z # 

Down In Flames Bass tabs (ver.1)

Garage Boy Mafia
Rating:
0/5 (0 votes)

Hard to play? Try these video lessons and learn fast.
                Garage Boy Mafia
"Down in Flames (The Intro)"


Intro
G|-x-x-x-x-|
D|-x-x-x-x-|
A|-x-x-x-x-|
E|-x-x-x-x-|

Verse
G|---------------------------------|
D|---------------------------------|
A|-0-0-0-0-7-7-7-5-5-5-5-5-8-7-5-4-|
E|---------------------------------|

Chorus

G|---------------------------------|
D|-7-7-7-7-7-7-7-7-7-7-7-7-7-7-7-7-|
A|-----------------0-0-0-0-0-0-0-0-|
E|---------------------------------|

G|---------------------------------|
D|---------------------------------|
A|-7-7-7-7-5-5-5-5-8-8-7-7-5-5-4-4-|
E|---------------------------------|

Bridge
G|---------------------------------|
D|---------------------------------|
A|---------------------------------|
E|-7-7-7-7-8-8-8-8-5-5-5-5-9-9-9-9-|
            
Hard to play? Try these video lessons and learn fast. | Correct




comments powered by Disqus
↑ Back to top | Tablatures and chords are parodies/interpretations of the original songs. You may use it for private study, scholarship, research or language learning purposes only