» » »

Game Theory, You Drive Tabs (ver.2)

Artists:  A B C D E F G H I J K L M N O P Q R S T U V W X Y Z # 

You Drive Tabs (ver.2)

Game Theory Tabs
Rating:
0/5 (0 votes)
You Drive lessons Tabs too difficult? Try these video lessons and learn fast
                YOU DRIVE

By Game Theory, from the Two Steps From The Middle Ages album


E |-----------------------------------------|
B |-12----12----12----12----12----12----12--|
G |----14----12----14----12----14----12-----|
D |-----------------------------------------|
A |-----------------------------------------|
E |-----------------------------------------|

    B        E         A
E |------------------|------------------|
B |----------4b5-----|----------4b5-----|
G |-6-4--4-6-----6-4-|-6-4--4-6-----6-4-|
D |------------------|------------------|
A |------------------|------------------|
E |------------------|------------------|

    B        E         A
E |------------------|------------------|
B |----------4b5-----|----------4b5-----|
G |-6-4--4-6-----6-4-|-6-4--4-6-----6-4-|
D |------------------|------------------|
A |------------------|------------------|
E |------------------|------------------|

    G7                 A
E |------------------|------------------|
B |----------4b5-----|----------4b5-----|
G |-6-4--4-6-----6-4-|-6-4--4-6-----6-4-|
D |------------------|------------------|
A |------------------|------------------|
E |------------------|------------------|

    G7                 A
E |------------------|------------------|
B |----------4b5-----|----------4b5-----|
G |-6-4--4-6-----6-4-|-6-4--4-6-----6-4-|
D |------------------|------------------|
A |------------------|------------------|
E |------------------|------------------|

Repeat

B                   E                   A       A/F#
All over El Cerrito hair gets combed in tangles down
B                  E               A      A/F#
And every radio's aligned onto the finest sound
G                               D
Look out for love lost when the lights are changing
A                  G
All last year's cassettes together melted on the ground

E |------------------|
B |------------------|
G |------------------|
D |-4-4--------------|
A |-----4h6-7--------|
E |-----------5h7--0-|


All over London, England young lines take the old lines on
The weight of never making any difference almost gone
And it's a headache being right when everybody wants to
Jump on you the first time that you're wrong

Across the nation every sports bar turns the pregame on
And every regular is sneering like we don't belong
No it's not true I played a lot of baseball in my younger days
One day the diamonds were all gone

    C#m
E |-4-----------------|
B |---2-4---4h5-4h5-4-|
G |-------------------|
D |-------------------|
A |-------------------|
E |-------------------|

C#m                                                A
The notices I never thought would be sent out have arrived

(this next part is played under "out have arrived")

E |------------------|
B |-4-5-4-5----------|
G |---------6-4-2----|
D |------------------|
A |------------------|
E |------------------|

C#m                                                A
The notices I never thought would be sent out have arrived

G                              D              A             G
Why can't we throw them in the faces that say we may not survive

Why can't we cruise the night alive?  You drive.
            

comments powered by Disqus
↑ Back to top | Game Theory Tabs for You Drive. Lyrics for acoustic guitar and electric guitar. Tablatures and chords are parodies/interpretations of the original songs. You may use it for private study, scholarship, research or language learning purposes only