» » »

Gallows, Will Someone Shoot That Fucking Snake Tabs (ver.3)

Artists:  A B C D E F G H I J K L M N O P Q R S T U V W X Y Z # 

Will Someone Shoot That Fucking Snake Tabs (ver.3)

Gallows Tabs
 Rating:
4/5 (4 votes)
Will Someone Shoot That Fucking Snake lessons Tabs too difficult? Try these video lessons and learn fast
                -------------------------------------------------------------------------------
                             SONG NAME - Band Name
-------------------------------------------------------------------------------

Tuning: Drop D

Verse
   Guitar 1
e|---------------------------------------------------------------------------|
B|---------------------------------------------------------------------------|
G|---------------------------------------------------------------------------|
D|-44453-44453-xxxx------0-0-0-00000-00-0-0-2--------------------------------|
A|-44453-44453-xxxx------0-0-0-00000-00-0-0-2--------------------------------|
D|-44453-44453-xxxx------0-0-0-00000-00-0-0-2--------------------------------|
Guitar 2
e|---------------------------------------------------------------------------|
B|---------------------------------------------------------------------------|
G|---------------------------------------------------------------------------|
D|-44453-44453-xxxx------5b-5b-5b-5b-5b--------------------------------------|
A|-44453-44453-xxxx----------------------------------------------------------|
E|-44453-44453-xxxx----------------------------------------------------------|

Chorus Part 1
Guitar 1
e|-------------------------------------------------------------------|
B|-------------------------------------------------------------------|
G|-------------------------------------------------------------------|
D|--4----7-------------------------------------------202-202-5-5577--|
A|--4x16-7x16----------------------------------------202-202-5-5577--|
E|--4----7-------------------------------------------202-205-5-5577--|
Guitar 2
e|-------------------------------------------------------------------|
B|-------------------------------------------------------------------|
G|-------------------------------------------------------------------|
D|---------------------------------------------------202-205-5-5577--|
A|---------------------------------------------------202-205-5-5577--|
E|---44444444777666447777777710101099988877----------202-205-5-5577--|
Chorus Part 2
Guitar1
e|------------------------------------------------|
B|------------------------------------------------|
G|------------------------------------------------|
D|--4444-4-44-42-----0------0------0------0-------|
A|--4444-4-44-42-x2--0------0------0------0-------|
E|--4444-4-44-42-----0-0000-0-0000-0-0000-0-0000--|
Guitar2
e|-----------------------------------------------------------------|
B|-----------------------------------------------------------------|
G|--5555-5-55-53-X2--7------9------11-----14-14-14-14-13-13-13-13--|
D|---------------------X8-----X8-----X8----------------------------|
A|-------------------5------7------9------12-12-12-12-11-11-11-11--|
E|-------------------0------0-------------0--0--0--0--0--0--0--0---|

The Whole song works around these riffs. Oh course the the gallows use of different 
but i dont know them well enough to tab them out properly. Will leave them to you. Enjoy

| /  slide up
| \  slide down
| h  hammer-on
| p  pull-off
| ~  vibrato
| +  harmonic
| x  Mute note
===============================================================================
            
Submit corrections

comments powered by Disqus
↑ Back to top | Gallows Tabs for Will Someone Shoot That Fucking Snake. Lyrics for acoustic guitar and electric guitar. Tablatures and chords are parodies/interpretations of the original songs. You may use it for private study, scholarship, research or language learning purposes only