>
 >
Orchestra Of Wolves

Orchestra Of Wolves Guitar Tabs

Gallows - Orchestra Of Wolves chords, tabs, tablatures, lyrics

Guitar lessons | Add/correct | Request | Top 50 tabs Artists:  A B C D E F G H I J K L M N O P Q R S T U V W X Y Z 0-9

Orchestra Of Wolves Guitar Tabs – Gallows

CD, Sheet music, Poster

Do you like Orchestra Of Wolves? Share with your friends now
Tabs
                           Orchestra Of Wolves--Gallows

Tuning:drop D

guitar 1&2 intro/verse
e|---------------------------------------------------------------|
B|---------------------------------------------------------------|
G|---5/4/5/4/5/4/5------5/4/5/4/5/4/5------5/4/5/4/5/4/5---------|
D|-445/4/5/4/5/4/57774445/4/5/4/5/4/57770005/4/5/4/5/4/5702------|
a|-44-------------777444-------------777000-------------702------|
d|-44-------------777444-------------777000-------------702------|

e|----------------------------------------------------------------------|
B|----------------------------------------------------------------------|
G|---5/4/5/4/5/4/5-----5/4/5/4/5/4/5------5/4/5/4/5/4/5-----------------|
D|-445/4/5/4/5/4/5222445/4/5/4/5/4/57770005/4/5/4/5/4/5222--------------|
A|-44-------------22244-------------777000-------------222--------------|
d|-44-------------22244-------------777000-------------222--------------|

e|------------------------------------------------------------------------|
B|------------------------------------------------------------------------|
G|-7777777755554444--------------7777777755554444-------------------------|
D|-777777775555444444444444444442777777775555444444444444444442-----------|
A|-555555553333222244444444444442555555553333222244444444444442-----------|
d|-----------------44444444444442----------------44444444444442-----------|
                     *****                       *************


guitar 1- chorus
e|-----------------------------------------------------------------------|
B|-----------------------------------------------------------------------|
G|-------4-4-444-------6-6-666-------------------------------------------|
D|0-0-0004-4-4444-4-4446-6-6667-7-7772-2-2224444444444444422-------------|
A|0-0-0002-2-2224-4-4444-4-4447-7-7772-2-2224444444444444422-------------|
d|0-0-000-------4-4-444-------7-7-7772-2-2224444444444444422-------------|

guitar 2- chorus
e|---------------------------------------------------------------------|
B|--^^-^^--^^-^^-^^-----^^-^^--^^--^^--^^------------------------------|
G|-6--6--64--6--6--64--9--9--99--11--11--1111--------------------------|
D|---------------------------------------------------------------------|
A|---------------------------------------------------------------------|
d|---------------------------------------------------------------------|

bridge
guitar 1
e|-----------------------------------------------------------------|
B|-----------------------------------------------------------------|
G|-----------------------------------------------------------------|
D|-4~~~~~~~~~------------------------------------------------------|
A|-----------3~~~~~~~~~2~~~~~~~~~3~~~~~~~~~------------------------|
d|-----------------------------------------------------------------|
guitar 2
e|----------------------------------------------------------------------|
B|----------------------------------------------------------------------|
G|----------------------------------------------------------------------|
D|-4---------7--------9--------10-------4------2------0-----7----2----4-|
A|-4---------7--------9--------10-------4------2------0-----7----2----4-|
E|-4---------7--------9--------10-------4------2------0-----7----2----4-|

(howling)
-verse

drums and vocals:
 *the hardest thing, you'll ever learn, is just to love and be loved in return*
2nd time- bass
G|------------------------------------------------------|
D|------------------------------------------------------|
A|------------------------------3---------------5-------|
d|-7--------------1-------------------------------------|

e|----------------------------------------------------------------------|
B|----------------------------------------------------------------------|
G|------------------------------------5555555555555555777777777777------|
D|666x777777777777777711111111111111115555555555555555555555555555666x--|
A|666x777777777777777711111111111111113333333333333333555555555555666x--|
E|666x77777777777777771111111111111111----------------------------666x--|

| /  slide up
| \  slide down
| h  hammer-on
| p  pull-off
| ~  vibrato
| +  harmonic
| x  Mute note
===============================================================================





Comments


Popular Gallows tabs & chords
Death Is Birth Bass Tabs
Staring At The Rude Bois 3 Bass Tabs
The Vulture Act 1 Chords
Come Friendly Bombs Tabs
In The Belly Of A Shark Intro Tabs
Kill The Rhythm Tabs
Rolling With The Punches Tabs
Staring At The Rude Boy Tabs
The Riverbank Tabs
The Vulture Act 2 1 Tabs


Song lyrics



↑ Back to top | Tablatures and chords are parodies/interpretations of the original songs. You may use it for private study, scholarship, research or language learning purposes only
© 2014 AZChords.com Contact us | Privacy policy | DMCA | Add/correct tabs | Request tabs | Top 50 tabs