» » »

Gallagher Rory, Bad Penny Tabs (ver.1)

Artists:  A B C D E F G H I J K L M N O P Q R S T U V W X Y Z # 

Bad Penny Tabs (ver.1)

Gallagher Rory Tabs
Rating:
0/5 (0 votes)
Bad Penny lessons Tabs too difficult? Try these video lessons and learn fast
                Rory Gallagher


Main Riff (Intro X2)
       Dm    F       C       Dm
e------1--1---1-1-1---------------------|
B------3--3---1-1-1----------3----------|
G------2--2---2-2-2----------2----------|    X2
D------0--0---3-3-3-----0-2--0------0---|
A-------------3-3-3--3----------0h3-----|
E-----------1-1-1-1---------------------|


e-------------8----8-8~~~~~~------------|
B---------6-8-8b10-8-6-5h6p5------------|
G---7p5h7--------------------7----------|    X2
D---0-----------------------------------|
A---------------------------------------|
E---------------------------------------|


Verse 1: (Main Riff)
Well, like a bad penny you have turned up again,
You're in my sights, there's a mist on my lens.
I think you know how it was when I tripped and fell,
Well, you double-dealed me, baby and I broke like a shell.


e-----------13-15-15b17-15-13-12h13p12--------------|
B--15p13h15----------------------------15-----------|
G---------------------------------------------------|    X2
D---------------------------------------------------|
A---------------------------------------------------|
E---------------------------------------------------|


Verse 2: (Main Riff)
Like a bad penny you've sure lost the glow
But I'm out of reach, your smile's sure gone cold.
Well, it can't ever be like it was then,
Well, don't you fool with me, baby,
Don't you mess with my plans.

Solo 1:
e------------8----8-8--------------------13-15-15b17-15-13-12h13p12-----|
B--------6-8-8b10-8-6-5h6p5-----15p13h15----------------------------15--|
G--7p5h7--------------------7-------------------------------------------|
D--0--------------------------------------------------------------------|
A-----------------------------------------------------------------------|
E-----------------------------------------------------------------------|

e-----15b17-15b17-15b17-15b17r15-13-12h13p12ā€”-----13-12------------|
B--15----------------------------------------15---------13-15------|
G------------------------------------------------------------------|
D------------------------------------------------------------------|
A------------------------------------------------------------------|
E------------------------------------------------------------------|

Bridge:
e---3--3--3--3----3--3--3--3--3--3--3-------3--3------1--3--1-------------|
B---5--5--5--5----3--5--5--5--5--5--5-------5--5------3--3--3---6p5h6p5---|
G---5--5--5--5----4--5--5--5--5--5--5-------5--5------3--3--3----------/7-|
D---5--5--5--5----5--5--5--5--5--5--5-------5--5------3--3--3-----------0-|
A---3--3--3--3----5--3--3--3--3--3--3-------3--3------1--1--1-------------|
E-----------------3-------------------------------------------------------|
Some stormy nights,  your memory haunts me, you won't go away.

Verse 3: (Main Riff)
Well, like a bad penny you have turned up in the change,
Try to fit into the picture, you can't get inside the frame.
I think you know I'm still sore, but I'm on the mend,
Times sure have changed, it won't happen again.

Verse 4: (Main Riff)
Well, like a bad penny spins around and around,
Well, you won't know what's gone wrong when it all falls down,
You got to learn from now on to stop playing games,
You ought to keep on moving, you got to spin on your way.

Bridge:
Some lonely nights, I hear you calling, won't you go away?

Verse 5: (Main Riff)
Well, like a bad penny you have turned up again,
You're in my sights, there's a mist on my lens.
I think you know how it was when I tripped and fell,
Well, you double-dealed me, baby, I cracked like a shell

Solo2:
e-------------------------------20b22--22r20-------------------------|
B----------18-20-20b21r20-20b22--------------22r20-18-17h18p17-------|
G--17-19-19---------------------------------------------------17-19--|
D--------------------------------------------------------------------|
A--------------------------------------------------------------------|
E--------------------------------------------------------------------|

e-----------------------------------------------------20b22-----|
B-----18-20b22-20b22-20b22-20b22r20-18-17h18p17h18-20-----------|
G--19-----------------------------------------------------------|
D---------------------------------------------------------------|
A---------------------------------------------------------------|
E---------------------------------------------------------------|

eā€”-20-20b22-20b22-20b22-20b22-20b22-20b22-20b22-20b22r20-20-----|
B---------------------------------------------------------------|
G-----------------------------------------------------------19--|
D---------------------------------------------------------------|
A---------------------------------------------------------------|
E---------------------------------------------------------------|

e------------------------------------------------------|
B-----------18-20-20b22~~-22r20-18-17h18p17------------|
Gā€”-19p17h19---------------------------------19---------|    X2
D------------------------------------------------------|
A------------------------------------------------------|
E------------------------------------------------------|

e-----------------------------------------------------|
B-----20b22-20b22r20-20b22r20-20-18-17h18p17----------|
G--19----------------------------------------19-------|
D-----------------------------------------------------|
A-----------------------------------------------------|
E-----------------------------------------------------|

e--------------------------20b22r20-----------------------------|
B-----20b22-20-18p17h18-20----------22r20-18-17h18p17-----------|
G--19-------------------------------------------------19p17h19--|
D---------------------------------------------------------------|
A---------------------------------------------------------------|
E---------------------------------------------------------------|
            

comments powered by Disqus
↑ Back to top | Gallagher Rory Tabs for Bad Penny. Lyrics for acoustic guitar and electric guitar. Tablatures and chords are parodies/interpretations of the original songs. You may use it for private study, scholarship, research or language learning purposes only