>
 >
For The Last Time

For The Last Time Guitar Tabs

Gallagher Rory - For The Last Time chords, tabs, tablatures, lyrics

Guitar lessons | Add/correct | Request | Top 50 tabs Artists:  A B C D E F G H I J K L M N O P Q R S T U V W X Y Z 0-9

For The Last Time Guitar Tabs – Gallagher Rory

CD, Sheet music, Poster

Do you like For The Last Time? Share with your friends now
Tabs
PROPS GO TO: Rob Watson

For the last time by Rory Gallagher from the album Rory Gallagher 
  
 
  
 
 Intro   

  Bsus2                   F#m    Bsus2               F#m     A  

E|----------------------2|------|----2--------------|--2----|-----------------|
B|----2-------2h3p2------|-2h3p2|------2h3p2---3---2|--2----|-----5-2h3-------|
G|--------2---4-----4-4--|-2----|--4---4-----4---4--|-------|-------------2-2-|
D|--4---4---4-4-----4----|-4----|2-----4------------|4------|--s2------2------|
A|2-----------------2----|------|-------------------|-------|0----------------|
E|-----------------------|------|-------------------|----2-4|-----------------|

  E                      F#m E D   F#m
                         2/4   4/4
E|----0---0-------------|----0|2--|----2---------------|----------------|
B|----------------------|----0|3--|----2---------------|----------------|
G|1---------1h2---2p1---|2---1|2--|----2--4b5r4p2-4----|----------------|
D|2-2---2---2---2-----2-|4---2|0--|----4---------------|----------------|
A|----------------------|4---2|---|--------------------|----------------|
E|----------------------|2---0|---|2-------------------|----------------|

ĘBsus2                            F#m

    You've done me wrong, for the last time 

 Bsus2                             F#m

    you've sung your song, now I'm going to sing mine out 

 A     Asus4  A    E    Esus4 E   F#m  E   D       F#m

 loud,          so loud           like the rolling sea 

  F#m

E|----2--------------|---------|
B|----2--------------|---------|
G|----2--------------|---4b6---|
D|----4--2h4p2-------|---------|
A|-------------4-2-0-|---------|
E|2------------------|---------|

 Bsus2                            F#m

    You've played around, for the last time 

 Bsus2                               F#m

    you've shown your claws, now I'm going to show mine watch 

 A   Asus4 A   E             Esus4 E   F#m E   D       F#m

 out           I'll be about           in  the night 

 (guitar solo 1) 

  F#m                                    Bsus2     
1.22
E|---2----------|-----------------------|--------5-7--7b9-7b9-7b9-7b9-|
B|---2----------|----------------------7|5b7-5-7----------------------|
G|---2----------|----------------2-4s6--|-----------------------------|
D|---4--2h4p2---|2h4-------0h2h4--------|-----------------------------|
A|------------4-|----0h2h4--------------|-----------------------------|
E|2-------------|-----------------------|-----------------------------|

  F#m                             Bsus2 

E|7b9-7p5p4-5-4-------5h7p5p4-5-4|------5h7p5p4-5-4------------|
B|--------------7-5-7------------|7-5-7-------------7-5-7--7b10|
G|-------------------------------|-----------------------------|
D|-------------------------------|-----------------------------|
A|-------------------------------|-----------------------------|
E|-------------------------------|-----------------------------|

  F#m             A                   E

E|---------------|----5-5-----5------|-----------------------------|
B|7-5h7p5s4-5-5--|5-7-----5-7---7-5--|-----------------------------|
G|---------------|------------------7|6-7p6p4-4h6p4----------------|
D|---------------|-------------------|--------------7-6-4h6p4------|
A|---------------|-------------------|------------------------7----|
E|---------------|-------------------|-----------------------------|

  F#m E   D   F#m 
  2/4     4/4
E|2---0--|2--|--2--------------|-------------------|
B|2---0--|3--|--2--------------|-------------------|
G|2---1--|2--|--2--------------|-------------------|
D|4---2--|0--|--4-----2h4p2----|-------------------|
A|4---2--|0--|----2h4-------4--|-------------------|
E|2---0--|---|2----------------|-------------------|

 Bsus2                        F#m

    You ran around, since the very first day 

 Bsus2                             F#m

    You've had your moment now I'm gonna have my play so 

 A     Auss4 A           E    Esus4 E   F#m E   D       F#m

 long            I'll be gone           in  the night 

 F#m

E|----2---------------|-------------------------|
B|----2---------------|-------------------------|
G|----2---------------|------------2-4p2---2----|
D|----4--s4p2-4p2-----|--4p2---2h4-------4---4--|
A|----------------4---|------4------------------|
E|2-------------------|-------------------------|

 Bsus2                         F#m

    You've put me down for the very last time 

 Bsus2                    F#m

    I hit the floor but I got up on the count of nine 

 A       Asus4 A        E   Esus4 E   F#m  E   D       F#m

 goodbye          don't cry           when I'm gone.

 (second guitar solo)   

  F#(m)
  2.51                                    pinch harmonics ph
E|----2----------------------|-----------|--------------------------------2|
B|----2----------------------|-----------|ph--ph--ph--ph--ph----ph----ph---|
G|----2-----------------2h4b5|-r4b5r4b5--|4b5-4b5-4b5-4b5-4b5r4-4b5r4-4b5--|
D|----4-----------0h2h4------|-----------|---------------------------------|
A|----------0h2h4------------|-----------|---------------------------------|
E|2--------------------------|-----------|---------------------------------|

E|--------------------------------2|--------------------------------2|
B|ph--ph--ph--ph--ph----ph----ph---|ph--ph--ph--ph--ph----ph----ph---|
G|4b5-4b5-4b5-4b5-4b5r4-4b5r4-4b5--|4b5-4b5-4b5-4b5-4b5r4-4b5r4-4b5--|
D|---------------------------------|---------------------------------|
A|---------------------------------|---------------------------------|
E|---------------------------------|---------------------------------|

E|--------------------------------2--|-----------------|------7-----7-5---|
B|----------------------------------5|5s7-7-5-7p5-7p5--|7p5-----7s5-----5h|
G|4b5-4b5-4b5-4b5-4b5r4-4b5r4-4b5----|----------------6|----6-------------|
D|-----------------------------------|-----------------|------------------|
A|-----------------------------------|-----------------|------------------|
E|-----------------------------------|-----------------|------------------|

E|------------------------------|---------------------------------|
B|7-5h7p5-----------------------|---------------------------------|
G|--------6-5-4-2-4b5r4-2-4p2---|----------------------2-4b5------|
D|----------------------------4-|2h4--2-4-2--------2-4------------|
A|------------------------------|----4-------0h2h4----------------|
E|------------------------------|---------------------------------|
                         3.25
E|2---------------------|--------2--------------------------------|
B|--5-2-----------------|----------5-2----------------------------|
G|------4b5r4-2-4tr-----|2-4-4b6-------4b5r4p2-4-2----------------|
D|-------------------2h4|--------------------------4p2h4p2--------|
A|----------------------|----------------------------------4------|
E|----------------------|-----------------------------------------|

E|----------------------|--------------------------|-----------------------------|
B|----------------------|--------------------------|-----------------------------|
G|----------------2-----|----------------4b5r4p2-4-|2h4p2s1-2-1------------------|
D|2h4p2---2h4p2-----4-4-|2h4p2---2h4p2-------------|------------4-2-4p2----------|
A|------4-------4-------|------4-------4-----------|--------------------4-2------|
E|----------------------|--------------------------|------------------------5-2-2|

E|-------------------|-----------------------------|-----------------------|
B|-------------------|-----------------------------|--5-7-7p5h7--7p5-7-7-5h|
G|------------------2|------------------------2h4s6|-----------------------|
D|----------2-4-2-4--|--------------------2h4------|-----------------------|
A|--0---2-4----------|--0-0---2-0---4-2h4----------|-----------------------|
E|2---2--------------|2-----2-----2----------------|-----------------------|

  3.46
E|-----------------------|-----------------------------|-------------------|
B|7-7-5-7s9b10-10---10-12|12b13r12p10-12-10-12b13-10-12|12b13r12p10-12-10--|
G|-----------------------|-----------------------------|------------------9|
D|-----------------------|-----------------------------|-------------------|
A|-----------------------|-----------------------------|-------------------|
E|-----------------------|-----------------------------|-------------------|

E|------------12b14--7-5----|----------|----------------------------|----|
B|12b13r12p10------------7-5|7b9--7p5-7|7b9-7b9---(7pb8)r7p5-7p5-4-5|5b7-|
G|--------------------------|----------|----------------------------|----|
D|--------------------------|----------|----------------------------|----|
A|--------------------------|----------|----------------------------|----|
E|--------------------------|----------|----------------------------|----|

E|------------------------------------------|---------------------------|
B|7b9r7p5-7--5b7r5p4-5--7b9r7p5-7--5b7r5p4-5|7b9r7-5h7p5s4-5-4----------|
G|------------------------------------------|------------------6-4h6-4-3|
D|------------------------------------------|---------------------------|
A|------------------------------------------|---------------------------|
E|------------------------------------------|---------------------------|

E|---------------------|-------------------------|-------------------------|
B|---------------------|--------------------2-1-2|----------1h2-1h2-1h2-1h2|
G|4-2h4p2s1-2-1--------|----1-1h2p1---1-2-4------|----1-2-4----------------|
D|--------------4-2-4--|2-4---------4------------|2-4----------------------|
A|--------------------4|-------------------------|-------------------------|
E|---------------------|-------------------------|-------------------------|

                4.28
E|-------------|---17b19-18b19-(19)r18tr|---17p14----17b19-17-14----------|
B|1h2---1-2-2--|14----------------------|14-------14-------------17b19----|
G|-------------|------------------------|------------------------------17b|
D|-------------|------------------------|---------------------------------|
A|-------------|------------------------|---------------------------------|
E|-------------|------------------------|---------------------------------|

E|-------------------------------------------|-------14----------------------|
B|-------------------------------------------|-------17b19-r17-14------------|
G|18-16b18r16p14-16-14tr---------------------|16b18---------------16-14tr----|
D|-----------------------14h16p14----------14|----------------------------16-|
A|--------------------------------16-14h16---|-------------------------------|
E|-------------------------------------------|-------------------------------|

E|--------12-----12------12----9-9-9-------9-------12------------|
B|--12b14---(14)----(14)---r12-------12b14---12b14----r12--------|
G|---------------------------------------------------------------|
D|---------------------------------------------------------------|
A|---------------------------------------------------------------|
E|---------------------------------------------------------------|

E|------9h11p9-11----11-9-11b12r11p9-11|------14h16p14----14------------|
B|12b14--------------------------------|15b17----------17----17b19tr--14|
G|-------------------------------------|--------------------------------|
D|-------------------------------------|--------------------------------|
A|-------------------------------------|--------------------------------|
E|-------------------------------------|--------------------------------|

  4.49
E|16p14----17b19-17-16-14----14---------------------------|
B|------14----------------17----17b19-14------------------|
G|---------------------------------------16b18r16p14------|
D|---------------------------------------------------16-14|
A|--------------------------------------------------------|
E|--------------------------------------------------------|

E|-----------------------------------|----------------------------------------------|
B|-----------------------------------|---9-10-(0)-9h10p9------------------12-10-9-10|
G|---14--------9-11p9----9p8----8-9--|11-----------------11-9-8----8h9h11-----------|
D|16------9h11--------11-----11------|--------------------------11------------------|
A|-----------------------------------|----------------------------------------------|
E|-----------------------------------|----------------------------------------------|
                                5.01
E|-----------------------------|---------------------------------|
B|--9h10p9---------------------|---------------------10----------|
G|---------11-9---------9-11-11|-----11p9----11-9-11----11-11tr--|
D|--------------11-9-11--------|--11------11---------------------|
A|-----------------------------|---------------------------------|
E|-----------------------------|---------------------------------|

E|------------------------------12|------------------------------12|
B|---------------------10-12b14---|---------------------10-12b14---|
G|-----11p9----11-9-11------------|-----11p9----11-9-11------------|
D|--11------11--------------------|--11------11--------------------|
A|--------------------------------|--------------------------------|
E|--------------------------------|--------------------------------|

E|------------------------------9-14|12b14-12b14-12b14r12-9----9---------|
B|---------------------10-12b14-----|-----------------------12---12-10---|
G|-----11p9----11-9-11--------------|----------------------------------11|
D|--11------11----------------------|------------------------------------|
A|----------------------------------|------------------------------------|
E|----------------------------------|------------------------------------|

E|12b14-12b14-12b14tr-r12-9---------------------------------|
B|--------------------------(12pb14)r12-10------------------|
G|-----------------------------------------11-9-11p9----9-11|
D|---------------------------------------------------11-----|
A|----------------------------------------------------------|
E|----------------------------------------------------------|

E|---------14-17b19-17b19-17b19|17b19-17b19-17b19-17b19-----|
B|------14---------------------|----------------------------|
G|16b18------------------------|----------------------------|
D|-----------------------------|----------------------------|
A|-----------------------------|----------------------------|
E|-----------------------------|----------------------------|

E|------14------------------------------------|p-h----------------------|
B|17b19----17-14h16p14------------------------|-------------------------|
G|---------------------16-14p13----13-14-14b16|14b16--8-times-----------|
D|------------------------------16------------|-------------------------|
A|--------------------------------------------|-------------------------|
E|--------------------------------------------|-------------------------|

E|------------------------------|----2----------------------------|
B|------------------------------|------5-2------------------------|
G|------14-13-------------------|2h4-------4b6r4p2----------------|
D|------------16-14-16sd-s16-2h4|------------------4-2h4p2--------|
A|------------------------------|--------------------------4-2-4--|
E|------------------------------|---------------------------------|

E|---------------------------------|--------------------------------|
B|---------------------------------|--------------------------------|
G|--------------2-4-4b5r4-2-4-2----|----------------------------2-4-|
D|--4p2-4p2---4-----------------4-2|--4p2-4p2---------------2-4-----|
A|----------4----------------------|----------4-2h4p2-0-2-4---------|
E|2--------------------------------|2-------------------------------|

  5.42
E|------2-----2-------2-------------|------------------------------------|
B|----2-------------2---------------|------------------------------------|
G|4b6-----4b6---4b6-----4b6r4-2-4tr-|0h2-4-4--2-4-4-4--0-4-4-4--2-0-2h4p2|
D|----------------------------------|------------------------------------|
A|----------------------------------|------------------------------------|
E|----------------------------------|------------------------------------|

E|--------------------------------|----2-------2-------2-------2-------2----|
B|--------------------------------|----------2-------2-------2-------2------|
G|--------------2-4s6--4h6p4s2-4-2|4b6---4b6-----4b6-----4b6-----4b6-----4b6|
D|4-2-4p2---2-4-------------------|-----------------------------------------|
A|--------4-----------------------|-----------------------------------------|
E|--------------------------------|-----------------------------------------|

E|--2-------2-------2-------2-------2-------2|------2---------5-2h5p2-------|
B|2-------2-------2-------2-------2-------2--|----2-------------------4-2---|
G|----4b6-----4b6-----4b6-----4b6-----4b6----|4b6-----(6)r5b6---------------|
D|-------------------------------------------|------------------------------|
A|-------------------------------------------|------------------------------|
E|-------------------------------------------|------------------------------|
  5.59
E|---------------------------|---------------------------------------|
B|---------------------------|---------------------------------------|
G|2p1-------------------2-4-2|4b6r4p2--------------------------------|
D|----4-2h4p2-------2-4------|--------4-4---7-4-7p4---4h7p4---4h7p4--|
A|------------4-2-4----------|----------------------7-------7-------7|
E|---------------------------|---------------------------------------|

E|-------------------------------------|-----------------------------------|
B|-------------------------------------|-----------------------------------|
G|-------------------------------------|-----------------------------------|
D|4h7p4---4h7p4---4h7p4---4h5p4---4-5-7|4h5p4---4-4-4h7p4---4--------------|
A|------7-------7-------7-------7------|------7-----------7---7-4-7p4---4-7|
E|-------------------------------------|------------------------------7----|
                                                        A
E|-----------------------------------|-----------------|---------------|
B|-----------------------------------|-----------------|--3-3-3-3-3-2--|
G|----------------------------------2|4b6-(6)tr-(6)tr--|--2-2-2-2-2-2--|
D|4-7-4h7p4---------------4h7p4-2h4--|-----------------|--2-2-2-2-2-2--|
A|----------7-4h7p4---4-7------------|----------------0|0-------------0|
E|------------------7----------------|-----------------|---------------|

  E          F#m E   D
             2/4
E|----------|----0--|2-----------------|
B|----------|----0--|3-----------------|
G|----------|2---1--|2-----------------|
D|--0trill2-|4---2--|0-----------------|
A|----------|4---2--|------------------|
E|0---------|2---0--|------------------|





Comments


Popular Gallagher Rory tabs & chords
Ghost Blues Chords
Moon Child Chords
Tattood Lady Chords
Calling Card Tabs
Im Not Awake Yet Tabs
In Your Town 1 Tabs
Laundromat Tabs
Moon Child Tabs
Pistol Slapper Blues 1 Tabs
Shadow Play Tabs


Song lyrics



↑ Back to top | Tablatures and chords are parodies/interpretations of the original songs. You may use it for private study, scholarship, research or language learning purposes only
© 2014 AZChords.com Contact us | Privacy policy | DMCA | Add/correct tabs | Request tabs | Top 50 tabs