>
 >
Funky Bird

Funky Bird Guitar Tabs

Galactic - Funky Bird chords, tabs, tablatures, lyrics

Guitar lessons | Add/correct | Request | Top 50 tabs Artists:  A B C D E F G H I J K L M N O P Q R S T U V W X Y Z 0-9

Funky Bird Guitar Tabs – Galactic

CD, Sheet music, Poster

Do you like Funky Bird? Share with your friends now
Bass TabsTabs
E  :-----------------|----------------|
B  :-----------------|----------------|
G  :8-h6---8-6-------|--6-------------|
D  :-----8-----------|----------------|
A  :-----------8-9-8-|9---------------|
E  :-----------------|----------------| repeat this some times, listen to album to get exact timing

do this next part with a wah, and it goes into the organ solo which i've tabbed out for guitar
E  :----------------|----------------|----------------|----------------|
B  :----------------|----------7---6-|----------------|-------------7-9|
G  :6-8-6-6-xxx-8-6-|6-8-6-6-6---8---|8-8--6-8-6-6-xxx|-8-6-6-8-6-6----|
D  :----------------|----------------|----------------|----------------|
A  :----------------|----------------|----------------|----------------|
E  :----------------|----------------|----------------|----------------|

E  :-5-6-5----------|----------------|----------------|----------------|
B  :-------9-7------|----------------|-------7---7---6|----------------|
G  :-----------8-6-6|-8-6-6-xxx-8-6-6|-8-6-6---8---8--|-8-8-6-8-6-xxx-8|
D  :----------------|----------------|----------------|----------------|
A  :----------------|----------------|----------------|----------------|
E  :----------------|----------------|----------------|----------------|

E  :----------------|
B  :----------------|
G  :-6-8-8-7-6-5-3-3|
D  :----------------|
A  :----------------|
E  :----------------|

this is the first organ solo
E  :1-s15----15-13-11----13-11|------------------------|
B  :------------------13------|-13-14-15-13----13------|
G  :------12------------------|-------------15----15-12|
D  :--------------------------|------------------------|
A  :--------------------------|------------------------|
E  :--------------------------|------------------------|

E  :------------------------|-----------------------|
B  :------------------------|-----------------------|
G  :-15-14-13-12----12------|-------------------12--|
D  :-------------15----15-13|-15-13-15-13-15-13-----|
A  :------------------------|-----------------------|
E  :------------------------|-----------------------|

E  :-------------------------------|------------------------|
B  :-----------11----------11------|---11-------11-------11-|
G  :--10-11-12----10-11-12----10-11|12----10-12----10-12----|
D  :-------------------------------|------------------------|
A  :-------------------------------|------------------------|
E  :-------------------------------|------------------------|

E  :----------15-13-11----13|-11---------------------|
B  :---15-13-----------13---|----13-14-15-13----13---|
G  :10----------------------|----------------15----12|
D  :------------------------|------------------------|
A  :------------------------|------------------------|
E  :------------------------|------------------------|

E  :------------------------|-----------------------|
B  :------------------------|-----------------------|
G  :-13-14-12----12---------|-----------------------|
D  :----------15----15-13-15|-13--15-13-------------|
A  :------------------------|-----------15-16-17-15-|
E  :------------------------|-----------------------|

E  :----------------------|
B  :----------------------|
G  :----------------------|
D  :----------------------|
A  :---15----------15-----|
E  :19----19-15-19--------|

The rest of the organ solos are basically the same, but really, your not even supposed to be doing them, i only tabbed that out cuz its fun to play.  During the organ soloing and horn soloing this is what the guitar plays.. basically a c9 arrangement but this is what it sounds like

E  :8----x-8-8--xx-8|-8--8----------8--|--x-8-8--x-8-8-8|
B  :8----x-8-8--xx-8|-8--8-----6-h8-8--|--x-8-8--x-8-8-8|
G  :----------------|------------------|----------------|
D  :----------------|------------------|----------------|
A  :----------------|------------------|----------------|
E  :----------------|------------------|----------------|

E  :-------------------|
B  :--10-10-p8---------|
G  :-------------------|
D  :-------------------|
A  :-------------------|
E  :-------------------|

At the the end the guitar just does the beginning tune again.





Comments


Popular Galactic tabs & chords
Church Bass Tabs
Church 1 Bass Tabs
Crazy Horse Mongoose Bass Tabs
Funky Bird Bass Tabs
Somethings Wrong With This Picture Bass Tabs
Somethings Wrong With This Picture 1 Bass Tabs
Two Clowns Bass Tabs


Song lyrics



↑ Back to top | Tablatures and chords are parodies/interpretations of the original songs. You may use it for private study, scholarship, research or language learning purposes only
© 2014 AZChords.com Contact us | Privacy policy | DMCA | Add/correct tabs | Request tabs | Top 50 tabs