» » »

Galactic, Funky Bird Bass tabs (ver.1)

Artists:  A B C D E F G H I J K L M N O P Q R S T U V W X Y Z # 

Funky Bird Bass tabs (ver.1)

Galactic Tabs
 Rating:
4/5 (4 votes)
Funky Bird lessons Tabs too difficult? Try these video lessons and learn fast
                
\=slide down from
/=slide up to
h=hammer

Enjoy.

Intro (0:01)
G:-----------------------------------------|
D:-----------------------------------------|
A:-5-4---5-4---------4---5-4---5-4---------|
E:-----5-----0-2-0-2---------5-----0-2-0-2-|

(0:44)
G:-------------|---------------|
D:-------------|---------------|
A:-6----6-6--4-|-6----6-6--4-4-|
E:-------------|---------------|

(0:54)
G:-------(8)-(8)--(8)----|
D:-----------------------|
A:-6---6--------6----4-4-|
E:-----------------------|

(1:06)
G:-------------|
D:-------------|
A:-6----6-6--4-|
E:-------------|

(1:24)
G:------------|---------------------|
D:------------|---------------------|
A:-6-6-5-4-3--|---------------------|
E:------------|-6-6----5-6-7-8--6-6-|

G:------------------------|
D:------------------------|
A:------------------------|
E:-8--6-6----5-6-7-8--6-6-|

(3:36)
G:-------------------------------------------|
D:-------------------------------------------|
A:-5-4---5-4---------4---5-4---5-4---------4-|
E:-----5-----0-2-0-2---------5-----0-2-0-2---|

(3:55) Play this till ending.
You have over a minute to improv this one :)
G:---------|---------------------------|
D:---------|---------------------------|
A:---------|---------------------------|
E:-9-10-11-|-9---11---11-10-9--9-10-11-|
            
Submit corrections

comments powered by Disqus
↑ Back to top | Galactic Bass for Funky Bird. Lyrics for acoustic guitar and electric guitar. Tablatures and chords are parodies/interpretations of the original songs. You may use it for private study, scholarship, research or language learning purposes only