» » »

Gackt, Redemption Tabs (ver.3)

Artists:  A B C D E F G H I J K L M N O P Q R S T U V W X Y Z # 

Redemption Tabs (ver.3)

Gackt Tabs
Rating:
0/5 (0 votes)
Hard to play? Try these video lessons and learn fast.
                sorry this is my first tab and i did it by ear sooo i'm really sorry =P but i hope its 
think i messed up though and if it doesnt sound right try it with another tuning okii

e|-19-------17--------------------------------------------------------|
B|----19-17----17-15-15/17--------------------------------------------|
G|--------------------------------------------------------------------|
D|--------------------------------------------------------------------|
A|--------------------------------------------------------------------|
D|--------------------------------------------------------------------|
            repeat that 8x for the intro


e|-1-3-3-1-3-5-|
B|-------------|
G|-------------| repeat 4x
D|-------------|
A|-------------|
D|-------------|


e|-1-3-3-1-3-10-|
B|--------------|
G|--------------| repeat 4x
D|--------------|
A|--------------|
D|--------------|


break for 16 measures....just count 1-2-3-4  2-2-3-4  3-2-3-4 4-2-3-4 and so forth (well 
counted and it should be 16 i'm not sure maybe even 15 measures)


e|------------------------------------------------------------------|
B|------------------------------------------------------------------|
G|------------------------------------------------------------------|
D|-0-0-0-0--------------3-3-3-3-3----0-0-0-0-------------0-0-0-0-0--|
A|-0-0-0-0-[cut short]--0-0-0-0-0----3-3-3-3-[cut short]-1-1-1-1-1--|
D|-0-0-0-0--------------0-0-0-0-0----0-0-0-0-------------0-0-0-0-0--|
                      repeat 4x for chorus


break for 20 measure ( as i said before it should be the right measureing but i'm not 
ones longer though)


e|------------------------------------------------------------------|
B|------------------------------------------------------------------|
G|------------------------------------------------------------------|
D|-0-0-0-0--------------3-3-3-3-3----0-0-0-0-------------0-0-0-0-0--|
A|-0-0-0-0-[cut short]--0-0-0-0-0----3-3-3-3-[cut short]-1-1-1-1-1--|
D|-0-0-0-0--------------0-0-0-0-0----0-0-0-0-------------0-0-0-0-0--|
                      repeat 3x for chorus


e|-----------------------------------------------------------------|
B|-----------------------------------------------------------------|
G|-----------------------------------------------------------------|
D|-0-0-0-0-------------3-3-3-3-3----0-0-0-0-------------5-5-5--3---|
A|-0-0-0-0-[cut short]-0-0-0-0-0----3-3-3-3-[cut short]-0-0-0--0---|
D|-0-0-0-0-------------0-0-0-0-0----0-0-0-0-------------0-0-0--0---|


e|------------------------------------------------------|
B|------------------------------------------------------|
G|------------------------------------------------------|
D|-0-0-0-0--0-0-0-0--0-0-0-0--0-0-0-0--0-0-0-0-0-0-0-0--|
A|-0-0-0-0--0-0-0-0--0-0-0-0--0-0-0-0--0-0-0-0-0-0-0-0--|
D|-0-0-0-0--0-0-0-0--0-0-0-0--0-0-0-0--0-0-0-0-0-0-0-0--|


e|-5---3---8--3-|
B|--------------|
G|--------------| repeat 8x solo lol sorry its the easiest one =] but look
D|--------------| at the video to hear how its supposed to be played
A|--------------|
D|--------------|


break for 9 measures

e|------------------------------------------------------------------|
B|------------------------------------------------------------------|
G|------------------------------------------------------------------|
D|-0-0-0-0--------------3-3-3-3-3----0-0-0-0-------------0-0-0-0-0--|
A|-0-0-0-0-[cut short]--0-0-0-0-0----3-3-3-3-[cut short]-1-1-1-1-1--|
D|-0-0-0-0--------------0-0-0-0-0----0-0-0-0-------------0-0-0-0-0--|
                        repeat 8x for chorus


e|-1-3-3-1-3-5-|
B|-------------|
G|-------------| repeat 4x
D|-------------|
A|-------------|
D|-------------|


e|-1-3-3-1-3-10-|
B|--------------|
G|--------------| repeat 4x
D|--------------|
A|--------------|
D|--------------|

e|------------------------------|
B|------------------------------|
G|------------------------------|
D|-0-0-0-0---0-0-0-0---0-0-0-0--|
A|-0-0-0-0---0-0-0-0---0-0-0-0--|
D|-0-0-0-0---0-0-0-0---0-0-0-0--|
            

comments powered by Disqus
↑ Back to top | Gackt Tabs for Redemption. Lyrics for acoustic guitar and electric guitar. Tablatures and chords are parodies/interpretations of the original songs. You may use it for private study, scholarship, research or language learning purposes only