» » »

Gabe Bondoc, Take You Down Tabs (ver.1)

Artists:  A B C D E F G H I J K L M N O P Q R S T U V W X Y Z # 

Take You Down Tabs (ver.1)

Gabe Bondoc Tabs
 Rating:
4/5 (4 votes)
Take You Down lessons Tabs too difficult? Try these video lessons and learn fast
1
                -----------------------------------------------------------------------
Take You Down (Cover) By Gabe Bondoc
-----------------------------------------------------------------------


Performed by: Gabe Bondoc
Originally written by: Chris Brown

Tuning: Half Step Down

this song for what it is.
Enjoy!

(These are just the tabs that I interpreted from his chords. In
no way do I think that this is the only way to play this song. Gabe slides and 
but I’ll leave that up for you. These tabs are solely meant
as a guide, feel free to explore with them and add as you wish!)


Verse/Chorus
            Em7    Bm7   CM7    G#Dim   Am7   Bm7
eb|-------------------------------7-----------------------------------|
Bb|----------7h8---6h7----8-------8------5-----7----------------------|
Gb|----------7-----7------7-------7------5-----7----------------------|
Db|----------9-----7------7------/8------5-----7----------------------|
Ab|----------7--------------------------------------------------------|
Eb|----------------7------8--------------5-----7----------------------|

Pre-Chorus
            Em7    Bm7   Am7     Bm7    CM7   C/D
eb|-------------------------------------------------------------------|
Bb|----------7-----6h7----5-------6h7----8-----8----------------------|
Gb|----------7-----7------5-------7------7-----9----------------------|
Db|----------5-----7------5-------7------7-----10---------------------|
Ab|----------7--------------------------------------------------------|
Eb|----------------7------5-------7------8-----10---------------------|


Note: Gabe often switches these two voicings of Em7, you can use them
interchangeably for the most part.

      Em7                    Em7
eb|---------|          eb|---------|
Bb|----7h8--|          Bb|----7----|
Gb|----7----|          Gb|----7----|
Db|----9----|          Db|----5----|
Ab|----7----|          Ab|----7----|
Eb|---------|          Eb|---------|

Cheers,
    Joel

| /  slide up
| \  slide down
| h  hammer-on
| p  pull-off
| ~  vibrato
| +  harmonic
| x  Mute note or Slap
=======================================================================
            
Submit corrections

comments powered by Disqus
↑ Back to top | Gabe Bondoc Tabs for Take You Down. Lyrics for acoustic guitar and electric guitar. 1 Tablatures and chords are parodies/interpretations of the original songs. You may use it for private study, scholarship, research or language learning purposes only