» » »

Summertime Tabs (ver.1)

Artists:  A B C D E F G H I J K L M N O P Q R S T U V W X Y Z # 

Summertime Tabs (ver.1)

Gabe Bondoc
Rating:
0/5 (0 votes)

Hard to play? Try these video lessons and learn fast.
                half step down

intro:
eb|---x-----x---|
Bb|---3-----x---|
Gb|---4-----6---|
Db|---5-----4---|
Ab|---x-----4---|
Eb|---3-----x---|

you play that first chord a bunch with that strumming pattern in the intro, and just add 
second chord when you finish off the intro. and play the "3" on the E string with your thumb.


verse:
eb|---7---x---7----x---x---|
Bb|---7---5---7h8--3---x---|
Gb|---7---6---7----4---6---|
Db|---7---7---7h9--5---4---|
Ab|---x---x---7----x---4---|
Eb|---7---5--------3---x---|

you could just bar the 1st chord if you want. and the second chord play the "5" on the E 
with your thumb. same with the 4th chord and the "3".

chorus:
eb|---5-------7----x---x-|
Bb|---7---2---7h8--3---x-|
Gb|---6---3---7----4---6-|
Db|---7---2---7h9--5---4-|
Ab|---5---x---7----x---4-|
Eb|-------2--------3---x-|

the first chord, you bar the 5th fret. the second chord, play the "2" on the E string 
your thumb. same with the the "3" on the 4th chord.


well i'm sorry i don't know the bridge, but i hope this will help you(:
            
Hard to play? Try these video lessons and learn fast. | Correct




comments powered by Disqus
↑ Back to top | Tablatures and chords are parodies/interpretations of the original songs. You may use it for private study, scholarship, research or language learning purposes only