» » »

Gabe Bondoc, Come On Over Cover Tabs (ver.1)

Artists:  A B C D E F G H I J K L M N O P Q R S T U V W X Y Z # 

Come On Over Cover Tabs (ver.1)

Gabe Bondoc Tabs
 Rating:
4.5/5 (8 votes)
Come On Over Cover lessons Tabs too difficult? Try these video lessons and learn fast
1
                -----------------------------------------------------------------------
Come On Over (Cover) By Gabe Bondoc
-----------------------------------------------------------------------


Performed by: Gabe Bondoc
Originally written by: Christina Aguilera

Tuning: Half Step Down
Capo 2

out) and I stumbled across this cover of Christina Aguilera’s, ‘Come On
Over’ and really liked it so I thought I’d tab out the chords that he
provided.
Enjoy!

(By the way, these are just the tabs that I interpreted from his chords. In
no way do I think that this is the only way to play this song. Gabe slides and 
but I’ll leave that up for you. These tabs are solely meant
as a guide, feel free to explore with them and add as you wish!)

Verse and Chorus
       E   G#m  AM7  A/B
eb|---(0)--(0)---------------------|
Bb|----0----0----5----5------------|
Gb|---h1----4----4----6------------|
Db|----2----4----4----7------------|
Ab|----2---------------------------|
Eb|----0----4----5----7------------|

Pre-Chorus and Post-Chorus
      C/E  C#m7  x3  F#9
eb|--------------|--------------|
Bb|--------(9)---|---------2----|
Gb|----9----9----|---(2)---2----|
Db|----9---------|----2----2----|
Ab|---------9----|----4----2----|
Eb|----9---------|----2---------|

*Note

Sometimes Gabe likes to transition from A/B (at the end of the Verse) to
C/E (in the Pre-Chorus) with an added chord like this.

      A/B         C/E
eb|---------------------|
Bb|----5----------------|
Gb|----6----(8)----9----|   etc...
Db|----7----(7)----9----|
Ab|---------------------|
Eb|----7----(8)----9----|


There you have it! Very simple song and really fun to pull out
unexpectedly, nothing like going back to the year 2000. Feedback very
welcome.

Cheers,
    Joel

| /  slide up
| \  slide down
| h  hammer-on
| p  pull-off
| ~  vibrato
| +  harmonic
| x  Mute note or Slap
=======================================================================
            
Submit corrections

comments powered by Disqus
↑ Back to top | Gabe Bondoc Tabs for Come On Over Cover. Lyrics for acoustic guitar and electric guitar. 1 Tablatures and chords are parodies/interpretations of the original songs. You may use it for private study, scholarship, research or language learning purposes only