» » »

Skip To The End Tabs (ver.1)

Artists:  A B C D E F G H I J K L M N O P Q R S T U V W X Y Z # 

Skip To The End Tabs (ver.1)

Futureheads
Rating:
1/5 (7 votes)

Hard to play? Try these video lessons and learn fast.
                Right this song has been tabbed really badly on here so i figured it out myself, so here it is. 

x means muted. 

Listen to the song to get the timing 

Intro
E-----------------|-----------------|-----------------|-----------------|
B-----------------|-----------------|-----------------|-----------------|
G---9999-9--------|---44444---------|-----------------|-----------------|
D---xxxx-x--------|---66666---------|-----------------|-----------------|
A---7777-x--------|---xxxxx---------|-----------------|-----------------|
E-0------7--------|-------5---------|-----------------|-----------------|


Verse 
E-----------------|-----------------|-----------------|-----------------|
B-----------------|-----------------|-----------------|-----------------|
G---9-------------|---4-------------|---9-------------|---4-------------|
D---x-------------|---6-------------|---x-------------|---6-------------|
A---7-------------|---x-------------|---7-------------|---x-------------|
E-----------------|-----------------|-----------------|-----------------|
 If i could cheat, i'd skip to the end....


E-----------------|-----------------|-----------------|-----------------|
B-----------------|-----------------|-----------------|-----------------|
G-666-------------|-----------------|--666------------|-----------------|
D-666-66-4--------|-----------------|--666-66-4-------|------------44---|
A-444-66-4--------|-----------------|--444-66-4-------|------------44---|
E-----44-2--------|-----------------|------44-2-------|------------22---|
            Theres nothing to rely on,            Skip to the end.

E-----------------|-----------------|-----------------|-----------------|
B-----------------|-----------------|-----------------|-----------------|
G-666-------------|-----------------|--666------------|-----------------|
D-666-66-4--------|-----------------|--666-66-4-------|------------44---|
A-444-66-4--------|-----------------|--444-66-4-------|------------44---|
E-----44-2--------|-----------------|------44-2-------|------------22---|
           Theres nothing to fall back on,        Skip to the end
            
Hard to play? Try these video lessons and learn fast. | Correct




comments powered by Disqus
↑ Back to top | Tablatures and chords are parodies/interpretations of the original songs. You may use it for private study, scholarship, research or language learning purposes only